» » »

*Blink 182*, Anthem Tabs (ver.21)

Artists:  A B C D E F G H I J K L M N O P Q R S T U V W X Y Z # 

Anthem Tabs (ver.21)

*Blink 182* Tabs
Rating:
0/5 (0 votes)
Anthem lessons Tabs too difficult? Try these video lessons and learn fast
                (PartTwo)
Blink 182, Anthem Part Two.
Corrected version by Simone Viani (eggs)

H = HIT

1
e|---------------------------------------|
B|-8---8---6---6---5---5---6---6---------|
G|---5---5---5---5---5---5---5---5-------|X4
D|---------------------------------------|
A|---------------------------------------|
E|---------------------------------------|

2
e|--------------------------------------------------------------|
B|--------------------------------------------------------------|
G|--------------------------------------------------------------|
D|-----2H3-----2-----2H3----2-----2H3----2----0---0-------|
A|-33-------33---33-------33---33------33---33--33--------|X4
E|--------------------------------------------------------------|

3
e|------------------------------------------------------------------------|
B|-----------------------------------------------------------------------|
G|-9 -10--7--5--7--9-10--7-5--7--9-10--7--5--7--9-10--5-|
D|-9--10--7--5--7--9-10--7-5--7--9-10--7--5--7--9-10--5-|
A|-7---8--5--3---5--7--8--5-3--5--7---8--5--3--5--7---8--3-|
E|-----------------------------------------------------------------------|

4
e|------|----|-----|
B|------|----|-----|   
G|-5----|----|-----|  X2
D|-5----|-7--|---3-|  THESE ARE THE CORDS
A|-3----|-7--|---3-|  LISTEN TO SONG FOR
E|------|-5--|-1---|  TIMING.
  1234 12  34

5 SIXTEENS UNSAFE....
e|---------------------------|
B|---------------------------|
G|---------------------------|
D|----2----------------------|
A|-3----------5-------3------|
E|----------3-------1--------|

6 WE REALY NEED TO...
e|------------------|
B|------------------|
G|-5--10---5--------|
D|-5--10---5--5-----|X3
A|-3----8---3--5----|
E|---------------3--|
            

comments powered by Disqus
↑ Back to top | *Blink 182* Tabs for Anthem. Lyrics for acoustic guitar and electric guitar. Tablatures and chords are parodies/interpretations of the original songs. You may use it for private study, scholarship, research or language learning purposes only