» » »

*Blink 182*, Anthem Tabs (ver.8)

Artists:  A B C D E F G H I J K L M N O P Q R S T U V W X Y Z # 

Anthem Tabs (ver.8)

*Blink 182* Tabs
 Rating:
4/5 (4 votes)
Anthem lessons Tabs too difficult? Try these video lessons and learn fast
                (PartTwo)
this is my first tab, and i fixed all of the problems

INTRO
Guitar 1
|--------------------------------------------------------------------------------|
|--------------------------------------------------------------------------------|
|--------------------------------------------------------------------------------|
|-5-5-5-5-------------------------5-5-5-5----------------------------------------|
|-3-3-3-3-------------------------3-3-3-3----------------------------------------|
|--------------------------------------------------------------------------------|

Guitar 2
|--------------------------------------------------------------------------------|
|-8---8---6---6---5---5---6---6---8---8---6---6---5---5---6---6------------------|
|---5---5---5---5---5---5---5---5---5---5---5---5---5---5---5---5----------------|
|--------------------------------------------------------------------------------|
|--------------------------------------------------------------------------------|
|--------------------------------------------------------------------------------|

Guitar 1
|--------------------------------------------------------------------------------|
|--------------------------------------------------------------------------------|
|--------------------------------------------------------------------------------|
|-5-5-5-5------------------------------------------------------------------------|
|-3-3-3-3------------------------------------------------------------------------|
|--------------------------------------------------------------------------------|

Guitar 2
|--------------------------------------------------------------------------------|
|-8---8---6---6---5---5---6---6---8---8---6---6---5---5---6---6------------------|
|---5---5---5---5---5---5---5---5---5---5---5---5---5---5---5---5----------------|
|--------------------------------------------------------------------------------|
|--------------------------------------------------------------------------------|
|--------------------------------------------------------------------------------|

INTRO 2
Guitar 1 
|---------------------------------------------------------------------Play-3-Times-|
|----------------------------------------------------------------------------------|
|----------------------------------------------------------------------------------|
|-----0h3-----2-----0h3-----2-----0h3-----2-----0-----0----------------------------|
|-3-3-----3-3---3-3-----3-3---3-3-----3-3---3-3---3-3------------------------------|
|----------------------------------------------------------------------------------|
  . .     . .   . .     . .   . .     .  .  . .   . .
Guitar 2 
|-------------------------------------------------------------------Play-3-Times-|
|-8---8---6---6---5---5---6---6--------------------------------------------------|
|---5---5---5---5---5---5---5---5------------------------------------------------|
|--------------------------------------------------------------------------------|
|--------------------------------------------------------------------------------|
|--------------------------------------------------------------------------------|

Guitar 1 
|----------------------------------------------------------------------------------|
|----------------------------------------------------------------------------------|
|-------------------------------------------5-5-5-5--5-5-5-5-----------------------|
|-----0h3-----2-----0h3-----2-----0h3-----2-5-5-5-5--5-5-5-5-----------------------|
|-3-3-----3-3---3-3-----3-3---3-3-----3-3---3-3-3-3--3-3-3-3-----------------------|
|----------------------------------------------------------------------------------|
  . .     . .   . .     . .   . .     . .

Guitar 2 
|--------------------------------------------------------------------------------|
|-8---8---6---6---5---5----------------------------------------------------------|
|---5---5---5---5---5---5--------------------------------------------------------|
|--------------------------------------------------------------------------------|
|--------------------------------------------------------------------------------|
|--------------------------------------------------------------------------------|

INTRO 3
Guitar 1
|------------Play-3-Times---|
|---------------------------|
|-9-9-9-10-10-9-5-5-5-7-7-7-|
|-x-x-x--x--x-x-x-x-x-x-x-x-|
|-7-7-7--8--8-7-3-3-3-5-5-5-|
|---------------------------|

|------------------------------|
|------------------------------|
|-9-9-9-10-10-5-5-5-5-5-5-5-5-5|
|-x-x-x--x--x-x-x-x-x-x-x-x-x-x|
|-7-7-7--8--8-3-3-3-3-3-3-3-3-3|
|------------------------------|

FILL
Guitar 1
|-----|
|-----|
|-5---|
|-x---|
|-3---|
|-----|let ring out

VERSE
Guitar 1
Wait until beginning of 3rd line that Tom sings
|---------------------------|
|---------------------------|
|-5555----------------------|
|-5555----------------------| 
|-3333----------------------|
|---------------------------|and right into:

VERSE 2
Guitar 1
|----------------------------------------------------------------|
|----------------------------------------------------------------|
|-5-5-5-5-5-5-5-5-5-5-5-5-5-5-5-5--------------------------------|
|-5-5-5-5-5-5-5-5-5-5-5-5-5-5-5-5-7-7-7-7-7-7-7-7-3-3-3-3-3-3-3-3|
|-3-3-3-3-3-3-3-3-3-3-3-3-3-3-3-3-7-7-7-7-7-7-7-7-3-3-3-3-3-3-3-3|
|---------------------------------5-5-5-5-5-5-5-5-1-1-1-1-1-1-1-1|
  . . . . . . . . . . . . . . . . . . . . . . . . . . . . . . . .

INTERLUDE
Guitar 1(actually bass, but guitar can play it)
|----------------------------------------|
|----------------------------------------|
|----------------------------------------|
|----------------------------------------|
|---7-----5-----3------------------------|
|-5---5-3---3-1--------------------------|


CHORUS
Guitar 1
|-----------------------------------------Play-3-Times------------|3rd time play
|-----------------------------------------------------------------|palm muted
|---------------------------------5-5-5-5-5-5-5-5-----------------|
|-2-2-2-2-2-2-2-2-3-3-3-3-3-3-3-3-5-5-5-5-5-5-5-5-5-5-5-5-5-5-5-5-|
|-2-2-2-2-2-2-2-2-3-3-3-3-3-3-3-3-3-3-3-3-3-3-3-3-5-5-5-5-5-5-5-5-|
|-0-0-0-0-0-0-0-0-1-1-1-1-1-1-1-1-----------------3-3-3-3-3-3-3-3-|

|-------------------------------------------------|
|-------------------------------------------------|
|---------------------------------5-5-5-5-5-5-5-5-|
|-2-2-2-2-2-2-2-2-3-3-3-3-3-3-3-3-5-5-5-5-5-5-5-5-|
|-2-2-2-2-2-2-2-2-3-3-3-3-3-3-3-3-3-3-3-3-3-3-3-3-|
|-0-0-0-0-0-0-0-0-1-1-1-1-1-1-1-1-----------------|
  . . . . . . . . . . . . . . . . . . . . . . .

Order To Play:

Intro     x 1
Intro 2   x 1
Intro 3   x 1
Fill      x 1
Verse     x 1
Verse 2   x 2
Interlude x 1
Fill      x 1
Verse     x 1
Verse 2   x 2
Interlude x 1
Chorus    x 1
Intro 3   x 1
Fill      x 1
Verse     x 1
Verse 2   x 2
Interlude x 1
Chorus    x 1
Pause for Bass
Chorus    x 1
Intro 2   x 1
            
Submit corrections

comments powered by Disqus
↑ Back to top | *Blink 182* Tabs for Anthem. Lyrics for acoustic guitar and electric guitar. Tablatures and chords are parodies/interpretations of the original songs. You may use it for private study, scholarship, research or language learning purposes only