» » »

*Blink 182*, Anthem Tabs (ver.6)

Artists:  A B C D E F G H I J K L M N O P Q R S T U V W X Y Z # 

Anthem Tabs (ver.6)

*Blink 182* Tabs
Rating:
0/5 (0 votes)
Anthem lessons Tabs too difficult? Try these video lessons and learn fast
                (PartIi)
Intro-------Repeat as needed--------

1----3-----3-------1-----1-------0-----0-------1-----1-----------------------------
2-------1-----1-------1-----1-------1-----1-------1-----1--------------------------
3----------------------------------------------------------------------------------
4----------------------------------------------------------------------------------
5----------------------------------------------------------------------------------
6----------------------------------------------------------------------------------

Other Intro Thing------Repeat as needed------

1----------------------------------------------------------------------------------
2----------------------------------------------------------------------------------
3----------------------------------------------------------------------------------
4--------0-3------2--------0-3-----2--------0-3-----2--------0-----0----------------
5----3-3------3-3-----------------------0-0-----0-0--------------------------------
6----------------------3-3-----3-3-----------------------1-1---1-1-----------------

Pre-Verse-------RePeat-------
1----------------------------------------------------------------------------------
2----------------------------------------------------------------------------------
3-----9-10-9-----5---7-----9-10-9-----5---7----------------------------------------
4-----x-xx-x-----x---x-----x-xx-x-----x---x----------------------------------------
5-----7-8--7-----3---5-----7--8-7-----3---5----------------------------------------
6----------------------------------------------------------------------------------

1----------------------------------------------------------------------------------
2-------------------------------6/>>>>>>>>>>>>>>>>>\-------------------------------
3----9-10-9-----5---7-----9-10--5/>>>>>>>>>>>>>>>>>\-------------------------------
4----x-xx-x-----x---x-----x-xx--3/>>>>>>>>>>>>>>>>>\-------------------------------
5----7-8--7-----3---5-----7--8--3/>>>>>>>>>>>>>>>>>\-------------------------------
6----------------------------------------------------------------------------------










P.S.Ill Get the rest L8tr








I am the biggest Blink 182 fan ever if u wanna question it go right ahead
            

comments powered by Disqus
↑ Back to top | *Blink 182* Tabs for Anthem. Lyrics for acoustic guitar and electric guitar. Tablatures and chords are parodies/interpretations of the original songs. You may use it for private study, scholarship, research or language learning purposes only