» » »

Anthem Tabs (ver.10)

Artists:  A B C D E F G H I J K L M N O P Q R S T U V W X Y Z # 

Anthem Tabs (ver.10)

*Blink 182*
Rating:
0/5 (0 votes)

Hard to play? Try these video lessons and learn fast.
                (Part)
)))=Letring
/=Slide
P.M.=Palm Mute

Intro:
Riff A:
(Play 5 times)
(Clean)
e|---------------------------------------------------------------------------|
B|8-----8-----6-----6-----5-----5-----6-----6--------------------------------|
G|---5-----5-----5-----5-----5-----5-----5-----5-----------------------------|
D|---------------------------------------------------------------------------|
A|---------------------------------------------------------------------------|
E|---------------------------------------------------------------------------|

Riff B:
(Play 3 times)
(Dist.)
e|---------------------------------------------------------------------------|
B|---------------------------------------------------------------------------|
G|---------------------------------------------------------------------------|
D|----0/3-----2-----0/3-----2-----0/3-----2-----0-----0----------------------|
A|3-3-----3-3---3-3-----3-3---3-3-----3-3---3-3---3-3------------------------|
E|---------------------------------------------------------------------------|
PM...     ...   ...     ...   ...     ...   ...   ...             

                                (Play 4 Times)
e|-------------------|-------------------------------------------------------|
B|-------------------|-------------------------------------------------------|
G|-------------------|-9-9-9-101010-9-9-9-5-5-5-7-7-7-7----------------------|
D|5-5-5-5----5-5-5-5-|-x-x-x-x-x-x--x-x-x-x-x-x-x-x-x-x----------------------|
A|3-3-3-3----3-3-3-3-|-7-7-7-8-8-8--7-7-7-3-3-3-5-5-5-5----------------------|
E|-------------------|-------------------------------------------------------|

Verse:
Riff C:
e|---------------------------------------------------------------------------|
B|---------------------------------------------------------------------------|
G|5)))-----------------------------------------------------------------------|
D|x)))-----------------------------------------------------------------------|
A|3)))-----------------------------------------------------------------------|
E|---------------------------------------------------------------------------|

e|---------------------------------------------------------------------------|
B|---------------------------------------------------------------------------|
G|9-9-9-5--------------------------------------------------------------------|
D|x-x-x-x--------------------------------------------------------------------|
A|7-7-7-3-3-3-3-3-3-3-3-3-3-3-3-3-3------------------------------------------|
E|----------------------------------5-5-5-5-5-5-5-5-1-1-1-1-1-1-1------------|
PM        ........................................................

e|---------------------------------------------------------------------------|
B|---------------------------------------------------------------------------|
G|---------------------------------------------------------------------------|
D|---------------------------------------------------------------------------|
A|-3-3-3-3-3-3-3-3-3-3-3-3-3-------------------------------------------------|
E|---------------------------5-5-5-5-5-5-5-1-1-1-1-1-1-1-1-------------------|
PM.........................................................

Bass Arranged For Guitar
e|---------------------------------------------------------------------------|
B|---------------------------------------------------------------------------|
G|---------------------------------------------------------------------------|
D|---------------------------------------------------------------------------|
A|----7-------5--------3)))--------------------------------------------------|
E|-5----5--3-----3--1--------------------------------------------------------|

Riff D:
e|---------------------------------------------------------------------------|
B|---------------------------------------------------------------------------|
G|5)))-----------------------------------------------------------------------|
D|x)))-----------------------------------------------------------------------|
A|3)))-----------------------------------------------------------------------|
E|---------------------------------------------------------------------------|

e|---------------------------------------------------------------------------|
B|---------------------------------------------------------------------------|
G|-9-9-9-5-------------------------------------------------------------------|
D|-x-x-x-x-------------------------------------------------------------------|
A|-7-7-7-3-3-3-3-3-3-3-3-3-3-3-3-3-3-----------------------------------------|
E|-----------------------------------5-5-5-5-5-5-5-5-1-1-1-1-1-1-1-1---------|
PM         ..........................................................

e|---------------------------------------------------------------------------|
B|---------------------------------------------------------------------------|
G|---------------------------------------------------------------------------|
D|---------------------------------------------------------------------------|
A|-3-3-3-3-3-3-3-3-3-3-3-3-3-------------------------------------------------|
E|---------------------------5-5-5-5-5-5-5-5-1-1-1-1-1-1-1-1-----------------|
PM .........................................................

Chorus:
e|---------------------------------------------------------------------------|
B|---------------------------------------------------------------------------|
G|---------------------------------------------------------------------------|
D|----------------5-5-5-5-------------------------5-5-5-5--------------------|
A|3-3-3-3-3-3-3-3-3-3-3-3-5-5-5-5-3-3-3-3-3-3-3-3-3-3-3-3-5-5-5-5------------|
E|0-0-0-0-1-1-1-1---------3-3-3-3-0-0-0-0-1-1-1-1---------3-3-3-3------------|

e|---------------------------------------------------------------------------|
B|---------------------------------------------------------------------------|
G|-5-5-5-5-5-5-5-5-5-5-5-5-5-5-5-5-5-5-5-5-5-5-5-5-5-5-5-5-5-5-5-5-5-5-5-5-5-|
D|-x-x-x-x-x-x-x-x-x-x-x-x-x-x-x-x-x-x-x-x-x-x-x-x-x-x-x-x-x-x-x-x-x-x-x-x-x-|
A|-3-3-3-3-3-3-3-3-3-3-3-3-3-3-3-3-3-3-3-3-3-3-3-3-3-3-3-3-3-3-3-3-3-3-3-3-3-|
E|---------------------------------------------------------------------------|

e|---------------------------------------------------------------------------|
B|---------------------------------------------------------------------------|
G|-5-5-5---------------------------------------------------------------------|
D|-x-x-x---------------------------------------------------------------------|
A|-3-3-3---------------------------------------------------------------------|
E|---------------------------------------------------------------------------|

Bass Solo:
e|---------------------------------------------------------------------------|
B|---------------------------------------------------------------------------|
G|---------------------------------------------------------------------------|
D|---------------------------------------------------------------------------|
A|-3-3-3-3-3-3-3-3-0-0-0-0-0-0-0-0-------------------------------------------|
E|---------------------------------1-1-1-1-1-1-1-1---------------------------|

Bridge:
e|---------------------------------------------------------------------------|
B|---------------------------------------------------------------------------|
G|-5-5-5-5-5-5-5-5-5-5-5-5-5-5-5-5-5-5-5-5-5-5-5-5-5-5-5-5-5-5-5-5-5-5-5-5---|
D|-5-5-5-5-5-5-5-5-5-5-5-5-5-5-5-5-5-5-5-5-5-5-5-5-5-5-5-5-5-5-5-5-5-5-5-5---|
A|---------------------------------------------------------------------------|
E|---------------------------------------------------------------------------|

(Play Riff D at the End)
End On This Note
e|---------------------------------------------------------------------------|
B|---------------------------------------------------------------------------|
G|---------------------------------------------------------------------------|
D|---------------------------------------------------------------------------|
A|-0)))))))))))))))))--------------------------------------------------------|
E|---------------------------------------------------------------------------|
            
Hard to play? Try these video lessons and learn fast. | Correct




comments powered by Disqus
↑ Back to top | Tablatures and chords are parodies/interpretations of the original songs. You may use it for private study, scholarship, research or language learning purposes only