>
 >
Anthem Ii 2

Anthem Ii 2 Guitar Tabs

*Blink 182* - Anthem Ii 2 chords, tabs, tablatures, lyrics

Guitar lessons | Add/correct | Request | Top 50 tabs Artists:  A B C D E F G H I J K L M N O P Q R S T U V W X Y Z 0-9

Anthem Ii 2 Guitar Tabs – *Blink 182*

CD, Sheet music, Poster

Do you like Anthem Ii 2? Share with your friends now
TabsTabs v2Tabs v3
This tab is 100% correct!!!
Ive been listening to these guys forever,
been playin for almost 2 years,
SIMPLY-I KNOW WHAT THE F*** IM DOING
so rate this correctly (5), cya later blink fans...
and Veronica... =)
---(Key)---
*=PM
h=Hammer on
~=Let note/s ring
---(Key)---

-->this is the intro! the 8s and 5s are the same notes
but they are clammy, these are open, like on the cd
Intro
[R]-3--3--1--1--0--0--1--1------------------------
[A]--1--1--1--1--1--1--1--1-----------------------
[T]-----------------------------------------------
[I]-----------------------------------------------
[U]-----------------------------------------------
[G]-----------------------------------------------

Intro(2nd guitar)
----------------------------------------------
----------------------------------------------
----------------------------------------------
----0h3----2---0h3--2---0h3--2---0---0--------
-33-----33---33---33--33---33--33--33---------
----------------------------------------------
 **     **   **   **  **   **  **  ** 
- While the 2nd guitar starts---)
Intro(3rd guitar)   <----------
---------------------
---------------------     Most people don't hear
-5555-7777-----------     this because it blends
-5555-7777-7777-3333-     in...
-3333-5555-7777-3333-
-----------5555-1111-
 **** **** **** ****
Pre-Verse
----------------------------------------------
----------------------------------------------
9-10-957-9-10-957-9-10-957-9-10-5-------------
x-x--xxx-x-x--xxx-x-x--xxx-x-x--x-------------
7-8--735-7-8--735-7-8--735-7-8--3-------------
----------------------------------------------

Verse (come in after two lines) palm mute mostly except 
for when you come in with those high power chords
--------------------------------------------------------------
--------------------------------------------------------------
-55--555555555555---------------55555555555-------------------
-55--555555555555-777777-333333-55555555555-77777777---3333333
-33--333333333333-777777-333333-33333333333-77777777---3333333
------------------555555-111111-------------55555555---1111111
      *********** ****** ****** *********** ********   *******
Chorus
-------------------~~~~~~~~~~~~~~~~~~~~~~~~~~~ (Parenthases)
-------------------~~~~~~~~~~~~~~~~~~~~~~~~~~~ (Not in song!)
---------5555------(999-10-10-10-5555~~~~~~~~~ (but if you 
-222-333-5555-5555-(999-10-10-10-5555-5555)~~~ (have 2 guitars)
-222-333-3333-5555-(777-8--8--8--3333-5555)~~~ (play this...)
-000-111------3333-~~~~~~~~~~~~~~~~~~~3333)~~~
                   ----Not in song---
Post Chorus (We'll never give up, it's no use,
 if we're ***ed up your to blame) (palm muted)
------------------5555555--------------------------------------
-77777777-3333333-5555555-5555555-7777777-3|-------------------
-77777777-3333333-3333333-5555555-7777777-3|-------------------
-55555555-1111111---------3333333-5555555-1|-------------------
 ******** ******* ******* ******* *******  |Stop
Order-
Intro (parts 1,2 and 3)
Pre-Verse
Verse
(bass line)
Verse
(bass line)         oh, and in after all pre verses:
Chorus              ------
Post Chorus         ------
Pre-Verse           ------
Verse               -5~~~~ let ring for .5 seconds
(bass line)         -3~~~~
Chorus              ------
Post Chorus
Bass line
Chorus
Post Chorus
Intro





Comments


Popular *Blink 182* tabs & chords
Action 2 Bass Tabs
Aliens Exist 4 Bass Tabs
21 Days Chords
Anthem Chords
Dont Tell Me Its Over Chords
B.J. 1 Tabs
Degenerate 1 Tabs
Point Of View Tabs
Wendy Clear Intro Tabs
What Went Wrong 1 Tabs


Song lyrics



↑ Back to top | Tablatures and chords are parodies/interpretations of the original songs. You may use it for private study, scholarship, research or language learning purposes only
© 2014 AZChords.com Contact us | Privacy policy | DMCA | Add/correct tabs | Request tabs | Top 50 tabs