>
 >
Anthem Ii

Anthem Ii Guitar Tabs

*Blink 182* - Anthem Ii chords, tabs, tablatures, lyrics

Guitar lessons | Add/correct | Request | Top 50 tabs Artists:  A B C D E F G H I J K L M N O P Q R S T U V W X Y Z 0-9

Anthem Ii Guitar Tabs – *Blink 182*

CD, Sheet music, Poster

Do you like Anthem Ii? Share with your friends now
TabsTabs v2Tabs v3
Blink 182
Anthem II
Note: This is like how they play it on the music video with the 1 guitar!

Intro 1
e---------------------------------|
B-8---8---6---6---5---5---6---6---|
G---5---5---5---5---5---5---5---5-|
D---------------------------------| x8
A---------------------------------|
E---------------------------------| 

Intro 2
e----------------|----------------|----------------|----------------|
B----------------|----------------|----------------|----------------|
G----------------|----------------|----------------|----------------|
D-----2h3------2-|-----2h3------2-|-----2h3------2-|------3-------3-|x4
A-3-3------3-3---|-5-5------5-5---|-0-0------0-0---|----------------|
E----------------|----------------|----------------|-1-1-----1-1----|
pm. .      . .     . .      . .     . .      . .     . .     . .

e--------|
B--------|
G-55-555-|Do this with the drums before
D-xx-xxx-|the next part
A-33-333-|
E--------|

e-------------------|          e-----------------------|
B-------------------|          B-----------------------|
G-9--10---9---5---7-|          G-9--10---5-------------|
D-x---x---x---x---x-| x3 then  D-x---x---x-(let ring)--| you could double each note
A-7---8---7---3---5-|          A-7---8---3-------------| if you want to
E-------------------|          E-----------------------|

Verse 1
First half of Verse is bass only then come in with this

E-------|
B-------|
G-9-9-5-|
D-x-x-x-|
A-7-7-3-|
E-------|

Then play this
e--------------------------------------------------------------------|
B--------------------------------------------------------------------|
G-5-5-5-5-5-5-5-5-5-5-5-5-5-5-5-5------------------------------------|
D-5-5-5-5-5-5-5-5-5-5-5-5-5-5-5-5---7-7-7-7-7-7-7-7--3-3-3-3-3-3-3-3-|
A-3-3-3-3-3-3-3-3-3-3-3-3-3-3-3-3---7-7-7-7-7-7-7-7--3-3-3-3-3-3-3-3-|
E-----------------------------------5-5-5-5-5-5-5-5--1-1-1-1-1-1-1-1-|
pm. . . . . . . . . . . . . . . .   . . . . . . . .  . . . . . . . . 

Bass Part

Play this right after the bass part
e----|
B----|
G-5--|
D-x--|
A-3--|
E----|

Verse 2
After first half of verse play this again

E-------|
B-------|
G-9-9-5-|
D-x-x-x-|
A-7-7-3-|
E-------|

e--------------------------------------------------------------------|
B--------------------------------------------------------------------|
G-5-5-5-5-5-5-5-5-5-5-5-5-5-5-5-5------------------------------------|
D-5-5-5-5-5-5-5-5-5-5-5-5-5-5-5-5---7-7-7-7-7-7-7-7--3-3-3-3-3-3-3-3-|
A-3-3-3-3-3-3-3-3-3-3-3-3-3-3-3-3---7-7-7-7-7-7-7-7--3-3-3-3-3-3-3-3-|
E-----------------------------------5-5-5-5-5-5-5-5--1-1-1-1-1-1-1-1-|
pm. . . . . . . . . . . . . . . .   . . . . . . . .  . . . . . . . . 

Bass Part

e-----------------------------------|
B-----------------------------------|
G-------------------5-5-5-5---------|
D-2-2-2-2--3-3-3-3--5-5-5-5-5-5-5-5-|x2 normal then
A-2-2-2-2--3-3-3-3--3-3-3-3-5-5-5-5-|x2 Muted
E-0-0-0-0--1-1-1-1----------3-3-3-3-|


e-------------------|          e-----------------------|
B-------------------|          B-----------------------|
G-9--10---9---5---7-|          G-9--10---5-------------|
D-x---x---x---x---x-| x3 then  D-x---x---x-(let ring)--| again you could double each note
A-7---8---7---3---5-|          A-7---8---3-------------| if you want to
E-------------------|          E-----------------------|

Verse 3
After first half of verse play this again

E-------|
B-------|
G-9-9-5-|
D-x-x-x-|
A-7-7-3-|
E-------|

e--------------------------------------------------------------------|
B--------------------------------------------------------------------|
G-5-5-5-5-5-5-5-5-5-5-5-5-5-5-5-5------------------------------------|
D-5-5-5-5-5-5-5-5-5-5-5-5-5-5-5-5---7-7-7-7-7-7-7-7--3-3-3-3-3-3-3-3-|
A-3-3-3-3-3-3-3-3-3-3-3-3-3-3-3-3---7-7-7-7-7-7-7-7--3-3-3-3-3-3-3-3-|
E-----------------------------------5-5-5-5-5-5-5-5--1-1-1-1-1-1-1-1-|
pm. . . . . . . . . . . . . . . .   . . . . . . . .  . . . . . . . . 

Bass Part

e-----------------------------------|
B-----------------------------------|
G-------------------5-5-5-5---------|
D-2-2-2-2--3-3-3-3--5-5-5-5-5-5-5-5-|x2 normal then
A-2-2-2-2--3-3-3-3--3-3-3-3-5-5-5-5-|x2 Muted
E-0-0-0-0--1-1-1-1----------3-3-3-3-|

Bass Solo
Then
e-----------------------------------|
B-----------------------------------|
G-------------------5-5-5-5---------|
D-2-2-2-2--3-3-3-3--5-5-5-5-5-5-5-5-|x2 normal then
A-2-2-2-2--3-3-3-3--3-3-3-3-5-5-5-5-|x2 Muted
E-0-0-0-0--1-1-1-1----------3-3-3-3-|

End with this:
e----------------|----------------|----------------|----------------|
B----------------|----------------|----------------|----------------|
G----------------|----------------|----------------|----------------|
D-----2h3------2-|-----2h3------2-|-----2h3------2-|------3-------3-|x4
A-3-3------3-3---|-5-5------5-5---|-0-0------0-0---|----------------|
E----------------|----------------|----------------|-1-1-----1-1----|
pm. .      . .     . .      . .     . .      . .     . .     . .





Comments


Popular *Blink 182* tabs & chords
Awsome New Bass Tabs
Dumpweed 3 Bass Tabs
Dick Lips Drum Tabs
Action 3 Tabs
Adams Song 1 Tabs
Adams Song 12 Tabs
Boring Tabs
Dammit Tabs
Damn It Tabs
Macca Is Gay Tabs


Song lyrics



↑ Back to top | Tablatures and chords are parodies/interpretations of the original songs. You may use it for private study, scholarship, research or language learning purposes only
© 2014 AZChords.com Contact us | Privacy policy | DMCA | Add/correct tabs | Request tabs | Top 50 tabs