» » »

Anthem Bass tabs (ver.4)

Artists:  A B C D E F G H I J K L M N O P Q R S T U V W X Y Z # 

Anthem Bass tabs (ver.4)

*Blink 182*
Rating:
0/5 (0 votes)

Tabs too difficult? Try these video lessons and learn fast.
                "Anthem"
blink-182
Enema of the State

First Correction:Gooseman
Second Correction: SuperSurge


All that really needed to be corrected was the solo, but I also moved some 
of the notes onto the lower strings, I think that's how they are played

Intro
G------------------------------------------------------
D------------------------------------------------------
A-22222-22222-22222-22222------------------------------
E-------------------------000000-222222-000000-222222--

G--------------------------------------------------
D----------------------11-22222-44444-22222-44444--
A-22222-22222-22222-44-----------------------------
E--------------------------------------------------

Pre-Chorus ("good things come to those who wait...")
G------------------------------------
D------------------------------------
A-----2--------2-4-----2--------2-4--
E-4-4---4--2-2-----0-0---0--2-2------

Verse 2
G----------------------------------------------------------
D-------------------11-2222222-44444444-22222222-4444444---
A-22222222222222-44----------------------------------------
E----------------------------------------------------------

Chorus ("you don't belong...")
G---------------------------------------------------
D---------------------------------------------------
A-22222222222-----------2222222222-------------xxx--
E-------------000000000------------2222222222-------

Next part ("I time bomb...")
G----------------------------------------------
D----------------------------------------------
A-22222222222----------------------------------
E-------------000000000-4444444444-222222222---

During guitar "solo"
G-----------------------------------------------
D-----------------------------------------------
A-22222222222-----------------------------------
E-------------00000000000-4444444444-222222222--

Solo (corrected)
G-----8-----8-----11-----11-----------------------------
D-9-9---9-9---9-9----9-9--------9-----9------11-----11--
A---------------------------7-7---7-7---/9-9----9-9-----
E-------------------------------------------------------
            
Tabs too difficult? Try these video lessons and learn fast.


comments powered by Disqus
↑ Back to top | Tablatures and chords are parodies/interpretations of the original songs. You may use it for private study, scholarship, research or language learning purposes only