» » »

A New Hope Bass tabs (ver.1)

Artists:  A B C D E F G H I J K L M N O P Q R S T U V W X Y Z # 

A New Hope Bass tabs (ver.1)

*Blink 182*
Rating:
0/5 (0 votes)

Hard to play? Try these video lessons and learn fast.
                I took the chance of correcting the tab by Zach, it had lots of mistakes,
but not anymore...


Riff 1:
G:---------------------------------------
D:---------------------------------------
A:--------------------00000000-3333-5555-
E:33333333-5555-3333---------------------

Riff 2:
G:------------------------------------------
D:------------------------------------------
A:----------------000000000000000-3333-5555-
E:333333333333333---------------------------

Riff 3:       x2                               x2
G:---------------|----------------|--------------|-----------------
D:---------------|----------------|--------------|--------------5>-
A:----3333-5555--|----3333-5555---|----3333-5555-|----3333-5555----
E:-3>------------|-0>-----------3-|-3>-----------|-0>--------------

Riff 4:
G:------------------------
D:------------------------
A:-0000000000--333333333--
E:------------------------

Riff 5:
G:-----------------------
D:-----------------------
A:-----------------------
E:-3333-5-3333-2---------

Riff 6:
G:-----------------------
D:-----------------------
A:-0000000000-3333-5555---
E:-----------------------

Riff 7:
G:-------------------------------------------
D:--5555-5555-7777-5555----------------------
A:----------------------0000-0000-3333-5555--
E:-------------------------------------------

Riff 8:
G:--------------------------
D:--------------------2-----
A:------5555-3333-2-3---5---
E:-3333---------------------

Riff 9:
G:-------------------
D:----------------5~-
A:---------3~--5~----
E:55555555-----------

Order
1x2
2x2
3x1
4x1
5x2
6x1
1x1
2x1
3x1
4x1
5x2
6x1
no bass
7x2
6x2
8x4
4x1
5x2
4x1
5x2
4x1
5x2
9x1
            
Hard to play? Try these video lessons and learn fast. | Correct




comments powered by Disqus
↑ Back to top | Tablatures and chords are parodies/interpretations of the original songs. You may use it for private study, scholarship, research or language learning purposes only