» » »

Wasting Time Tabs (ver.1)

Artists:  A B C D E F G H I J K L M N O P Q R S T U V W X Y Z # 

Wasting Time Tabs (ver.1)

Blink
Rating:
0/5 (0 votes)

Tabs too difficult? Try these video lessons and learn fast.
                

Intro
e-----------|-------------|--------------|--------------||
b-----------|-------------|--------------|--------------||
g-----------|-------------|--------------|--------------||
d-----9-7-6-|---6h7-9-7-6-|--6-----7---6-|--4-----4---4-||
a---7-------|-0-----------|-4---4-4---4--|-2---2-2---2--||
E-0---------|-------------|--------------|--------------||

Chorus
e-------------|-----------||
b-------------|-----------||
g-------------|-----------||
d-2-2222------|-6666-4444-||  
a-0-0000-2222-|-4444-2222-||
E--------0000-|-----------||

After Chorus
e-------------|----------|----------|----------|----------------||
b-------------|----------|----------|----------|---10-------10--||
g-------------|----------|----------|----------|-9---9---9----9-||
d-2-2222------|-66666666-|-44444444-|----------|-------7--------||
a-0-0000-2222-|-44444444-|-22222222-|-77777777-|----------------||
E--------0000-|----------|----------|-55555555-|----------------||

Verse (second time p.m.)
e-----------|-----------||
b-----------|-----------||
g-----------|-----------||
d-2222------|-6666-4444-||
a-0000-2222-|-4444-2222-||
E------0000-|-----------||

Thats the whole thing.

By John Black
            
Tabs too difficult? Try these video lessons and learn fast.


comments powered by Disqus
↑ Back to top | Tablatures and chords are parodies/interpretations of the original songs. You may use it for private study, scholarship, research or language learning purposes only