» » »

Blink, Dick Lips Tabs (ver.1)

Artists:  A B C D E F G H I J K L M N O P Q R S T U V W X Y Z # 

Dick Lips Tabs (ver.1)

Blink Tabs
 Rating:
4/5 (4 votes)
Dick Lips lessons Tabs too difficult? Try these video lessons and learn fast
                Intro:

e||--------------------------------------------------------------------||
B||--------------------------------------------------------------------||
G||--------------------------------------------------------------------||
D||-77777777-77777777-77777777-777777777-------------------------------||
A||-44444444-55555555-00000000-777777777-------------------------------||
E||--------------------------------------------------------------------||

Verse:

E||--------------------------------------------------------------------||
B||--------------------------------------------------------------------||
G||-----------------77777777-99999999-------------------77777777--99999||
D||7777777777777777-77777777-99999999--7777777777777777-77777777--99999||
A||7777777777777777-55555555-77777777--7777777777777777-55555555--77777||
E||5555555555555555--------------------5555555555555555----------------||
 
Chours 

E||--------------------------------------------------------------------||
B||--------------------------------------------------------------------||
G||-66666666-77777777----------999999999-------------------------------||
D||-66666666-77777777-77777777-999999999-------------------------------||
A||-44444444-55555555-77777777-777777777-------------------------------||
E||-------------------55555555-----------------------------------------||

E||--------------------------------------------------------------------||
B||--------------------------------------------------------------------||
G||-14---13---14---13---14---13---16---14---13-------------------------||
D||--------------------------------------------------------------------||
A||-12---11---12---11---12---11---14---12---11-------------------------||
E||--------------------------------------------------------------------||

Pre-interlude

E||--------------------------------------------------------------------||
B||--------------------------------------------------------------------||
G||--------------------------------------------------------------------||
D||--77777777-77777777-77777777---77777777-77777777-77777777-----------||
A||--44444444-55555555-77777777---44444444-55555555-77777777-----------||
E||--------------------------------------------------------------------||

Interlude

E||--------------------------------------------------------------------||
B||--------------------------------------------------------------------||
G||----------7-6---------7777777---------------------------------------||
D||--777777--7-6--22222--7777777---------------------------------------||
A||--777777--5-4--22222--5555555---------------------------------------||
E||--555555-------00000------------------------------------------------||
            
Submit corrections

comments powered by Disqus
↑ Back to top | Blink Tabs for Dick Lips. Lyrics for acoustic guitar and electric guitar. Tablatures and chords are parodies/interpretations of the original songs. You may use it for private study, scholarship, research or language learning purposes only