>
 >
A New Hope

A New Hope Guitar Tabs

Blink - A New Hope chords, tabs, tablatures, lyrics

Guitar lessons | Add/correct | Request | Top 50 tabs Artists:  A B C D E F G H I J K L M N O P Q R S T U V W X Y Z 0-9

A New Hope Guitar Tabs – Blink

CD, Sheet music, Poster

Do you like A New Hope? Share with your friends now
Tabs
Fig. 1 - gtrs. 1 & 2
---------------------|------|------|---------------------|
---------------------|-*--/-|-*--/-|---------------------|
-12--12-12-12-12-12--|---/--|---/--|-11--11-11-11-11-11--|
---------------------|--/---|--/---|---------------------|
-10--10-10-10-10-10--|-/--*-|-/--*-|-10--10-10-10-10-10--|
---------------------|------|------|---------------------|

---------------------|------|---------------------|---------------------|
---------------------|-*--/-|---------------------|---------------------|
---------------------|---/--|---------------------|-11--11-11-11-11-11--|
-10--10-10-10-10-10--|--/---|-12--12-12-12-12-12--|-12--12-12-12-12-12--|
---------------------|-/--*-|---------------------|---------------------|
--8---8--8--8--8--8--|------|-10--10-10-10-10-10--|-10--10-10-10-10-10--|

Fig. 2 - gtrs. 1 & 2
---------------------|------|------|---------------------|
---------------------|-*--/-|-*--/-|---------------------|
-12-12--12-12-12--12-|---/--|---/--|-11-11--11-11-11--11-|
---------------------|--/---|--/---|---------------------|
-10-10--10-10-10--10-|-/--*-|-/--*-|-10-10--10-10-10--10-|
---------------------|------|------|---------------------|

---------------------|------|---------------------|---------------------|
---------------------|-*--/-|---------------------|---------------------|
---------------------|---/--|---------------------|-11-11--11-11-11--11-|
-10-10--10-10-10--10-|--/---|-12-12--12-12-12--12-|-12-12--12-12-12--12-|
---------------------|-/--*-|---------------------|---------------------|
--8--8---8--8--8---8-|------|-10-10--10-10-10--10-|-10-10--10-10-10--10-|

Fig. 3 - gtrs. 1 & 2
----------------|----------------|---------------|----------------|
----------------|----------------|---------------|----------------|
*---------------|-5-5-5-7--7-7-7-|---------------|-5-5-5-7--7-7-7-|
*-5-5--5-5-5--5-|-5-5-5-7--7-7-7-|-5-5--5-5-5--5-|-5-5-5-7--7-7-7-|
--5-5--5-5-5--5-|-3-3-3-5--5-5-5-|-5-5--5-5-5--5-|-3-3-3-5--5-5-5-|
--3-3--3-3-3--3-|----------------|-3-3--3-3-3--3-|----------------|

---------------|---------------|---------------------|
---------------|---------------|---------------------|
---------------|-5-5--5-7-7--7-|-12-12--12-12-12--12-|
-2-2--2-2-2--2-|-5-5--5-7-7--7-|---------------------|
-2-2--2-2-2--2-|-3-3--3-5-5--5-|-10-10--10-10-10--10-|
-0-0--0-0-0--0-|---------------|---------------------|
______________________ ________
1.               2.
----------------------|--------|
----------------------|--^-----|
-11-11--11-11-11--11-*|-11-X\--|
---------------------*|----X\--|
-10-10--10-10-10--10--|-10-X\--|
----------------------|----X\--|
                         _______________________
Fig. 4 - gtrs. 1 & 2               1.
----------------|------|---------------|------|---------------|
----------------|-*--/-|---------------|-*--/-|---------------|
*-2-2--2-2-2--2-|---/--|-5-5--5-5-5--5-|---/--|---------------|
*-2-2--2-2-2--2-|--/---|-5-5--5-5-5--5-|--/---|---------------|
--0-0--0-0-0--0-|-/--*-|-3-3--3-3-3--3-|-/--*-|---------------|
----------------|------|---------------|------|-3-3--3-3-3-5--|
                                pm.........
________________________________________________ _______________
(1.)                           2.
---------------|---------------|----------------|---------------|
---------------|---------------|----------------|---------------|
---------------|---------------|----------------|-7-7--7-7-7--7-|
---------------|---------------|---------------*|-7-7--7-7-7--7-|
---------------|---------------|----------------|-5-5--5-5-5--5-|
-3-3--3-3-3-2--|-3-3--3-3-3-5--|-3-3--3-3-3-2---|---------------|
pm.........      ..........      ..........

Fig. 5 - gtrs. 1 & 2: hold out a G chord (3 5 5 X X X, 3 2 0 0 3 3, or both)
                for 23 measures, then...
       end Fig. 5 Fig. 6a - gtr. 1
-----------------|------------------|------|-----------------|
-----------------|------0h3-----0h3-|-*--/-|-----1p0-----1p0-|
-----------------|*-0-0-----0-0-----|---/--|-0-0-----0-0-----|
-5-5-5-5-5-5-5-5-|*-----------------|--/---|-----------------|
-----------------|------------------|-/--*-|-----------------|
-3-3-3-3-3-3-3-3-|------------------|------|-----------------|
pm.....................     ...                   ...     ...
_________________ ________________
1.          2.
-----------------|----------------|
-----1p0-----0---|-----0h1-----0--|
-0-0-----0-0----*|-0-0-----0-0----|
----------------*|----------------|
-----------------|----------------|
-----------------|----------------|
pm..     ...       ...     ...

Fig. 6b - gtr. 2
----------------|------|------|------|----------------|------|
----------------|-*--/-|-*--/-|-*--/-|----------------|-*--/-|
----------------|---/--|---/--|---/--|-2--2-2-2-2-2-2-|---/--|
-5--5-5-5-5-5-5-|--/---|--/---|--/---|-2--2-2-2-2-2-2-|--/---|
-5--5-5-5-5-5-5-|-/--*-|-/--*-|-/--*-|-0--0-0-0-0-0-0-|-/--*-|
-3--3-3-3-3-3-3-|------|------|------|----------------|------|

----------------|----------------|
----------------|----------------|
-5--5-5-5-5-5-5-|-7--7-7-7-7-7-7-|
-5--5-5-5-5-5-5-|-7--7-7-7-7-7-7-|
-3--3-3-3-3-3-3-|-5--5-5-5-5-5-5-|
----------------|----------------|
                      _________________________________
Fig. 7a - gtr. 1           1., 2., 3.
-----------------|---------------|----------------|----------------|
-----------------|---------------|----------------|----------------|
*------7-7-7-4-4-|-7-7--7-7-7--7-|-5-5--4-4-4-5-5-|-9-9--9-7-7--7-*|
*-5-5------------|---------------|----------------|---------------*|
-------5-5-5-2-2-|-5-5--5-5-5--5-|-3-3--2-2-2-3-3-|-7-7--7-5-5--5--|
--3-3------------|---------------|----------------|----------------|
________________________
4.
-----------------|------|
-----------------|-^----|
-5-5-5-5-5-5-5-5-|-9----|
-----------------|------|
-3-3-3-3-3-3-3-3-|-7----|
-----------------|------|
                               ________________ ______
Fig. 7b - gtr. 2                    1., 2., 3.      4.
----------------|---------------|---------------|----------------|------|
----------------|---------------|---------------|----------------|-^----|
*---------------|-7-7--7-7-7--7-|-5-5--5-5-5--5-|-9-9--9-7-7--7-*|-9----|
*-5-5--5-5-5--5-|-7-7--7-7-7--7-|-5-5--5-5-5--5-|-9-9--9-7-7--7-*|-9----|
--5-5--5-5-5--5-|-5-5--5-5-5--5-|-3-3--3-3-3--3-|-7-7--7-5-5--5--|-7----|
--3-3--3-3-3--3-|---------------|---------------|----------------|------|
               _______________________________________
Fig. 8 - gtrs. 1 & 2     1., 2.
----------------|------|---------------|------|---------------|
----------------|-*--/-|---------------|-*--/-|---------------|
*-2-2--2-2-2--2-|---/--|-5-5--5-5-5--5-|---/--|---------------|
*-2-2--2-2-2--2-|--/---|-5-5--5-5-5--5-|--/---|---------------|
--0-0--0-0-0--0-|-/--*-|-3-3--3-3-3--3-|-/--*-|---------------|
----------------|------|---------------|------|-3-3--3-3-3-5--|
                                pm.........
________________________________________________ _______________________
(1., 2.)                       3.
---------------|---------------|----------------|---------------|------|
---------------|---------------|----------------|---------------|-*--/-|
---------------|---------------|---------------*|-5-5--5-5-5--5-|---/--|
---------------|---------------|---------------*|-5-5--5-5-5--5-|--/---|
---------------|---------------|----------------|-3-3--3-3-3--3-|-/--*-|
-3-3--3-3-3-2--|-3-3--3-3-3-5--|-3-3--3-3-3-2---|---------------|------|
pm.........      ..........      ..........
_____________________________________ ____________________
(3.)                      4.
---------------|------|------|-------|------|------|------|
---------------|-*--/-|-*--/-|-*--/--|------|------|------|
---------------|---/--|---/--|---/--*|-5----|-7----|-@----|
-5-5--5-5-5--5-|--/---|--/---|--/---*|-5----|-7----|-5----|
-5-5--5-5-5--5-|-/--*-|-/--*-|-/--*--|-3----|-5----|-5----|
-3-3--3-3-3--3-|------|------|-------|------|------|-3----|

Order:
Fig. 1, 2x     Fig. 4
Fig. 2, 2x     Fig. 5
Fig. 3         Fig. 6a
Fig. 4         Fig. 6a & 6b
Fig. 1 (1x)    Fig. 7a & 7b
Fig. 2 (1x)    Fig. 8
Fig. 3





Comments


Popular Blink tabs & chords
Asthenia 2 Tabs
Ben Wah Balls 1 Tabs
Dick Lips Tabs
Down 2 Tabs
Dysentary Gary Tabs
Not Now Tabs
Pathetic 1 Tabs
Stay Together For The Kids 2 Tabs
The Country Song Tabs
Violence 2 Tabs


Song lyrics



↑ Back to top | Tablatures and chords are parodies/interpretations of the original songs. You may use it for private study, scholarship, research or language learning purposes only
© 2014 AZChords.com Contact us | Privacy policy | DMCA | Add/correct tabs | Request tabs | Top 50 tabs