» » »

Theres A Fine Line Between Love And Hate Tabs (ver.2)

Artists:  A B C D E F G H I J K L M N O P Q R S T U V W X Y Z # 

Theres A Fine Line Between Love And Hate Tabs (ver.2)

Blessthefall
Rating:
0/5 (0 votes)

Hard to play? Try these video lessons and learn fast.
                (Intro)
E||-------------------|-------------------|
B||-------------------|-------------------|
G||-------------------|-------------------|
D||-------------------|-------------------|
A||--0----------------|--8----------------|
D||--0----------------|--8----------------|
 

|---------------------------------------------|
|---------------------------------------------|
|*--------------------------------------------|
|*--------------------------------------------|
|-------7---7-8---------10-----10----12-10----|
|---0-0---0-----10-12-0----0-0----12----------|
                                                 x3
----------------------------------------------|
----------------------------------------------|
---------------------------------------------*|
---------------------------------13-12-------*| 
----12-----10----13-12---12---10-------13-12--|
--0----0-0----12-------0----0-----------------|
                                             

|--------------------|
|--------------------|
|--/9----------------|
|--------------------|
|--------------------|
          
---------------------|---------------------|
---------------------|---------------------|
--/10----------------|--/12----------------|
---------------------|---------------------|
---------------------|---------------------|
---------------------|---------------------|
            
Hard to play? Try these video lessons and learn fast. | Correct




comments powered by Disqus
↑ Back to top | Tablatures and chords are parodies/interpretations of the original songs. You may use it for private study, scholarship, research or language learning purposes only