» » »

Blessthefall, Theres A Fine Line Between Love And Hate Tabs (ver.1)

Artists:  A B C D E F G H I J K L M N O P Q R S T U V W X Y Z # 

Theres A Fine Line Between Love And Hate Tabs (ver.1)

Blessthefall Tabs
 Rating:
4/5 (4 votes)
Theres A Fine Line Between Love And Hate lessons Tabs too difficult? Try these video lessons and learn fast
                I haven't figured out the clean part and the part after that sorry but it's probably 
the same notes as the rest of the song

Tuning: Drop D

E||-------------------|-------------------|
B||-------------------|-------------------|
G||-------------------|-------------------|
D||-------------------|-------------------|
A||--0----------------|--8----------------|
D||--0----------------|--8----------------|


|------------------------------------------|
|------------------------------------------|
|*-----------------------------------------|
|*-----------------------------------------|
|-------7---7-8---------10-----10----12-10-|
|---0-0---0-----10-12-0----0-0----12-------|


                                              4x
----------------------------------------------|
----------------------------------------------|
---------------------------------------------*|
---------------------------------13-12-------*|
----12-----10----13-12---12---10-------13-12--|
--0----0-0----12-------0----0-----------------|


|--------------------|
|--------------------|
|----/9--------------|
|--------------------|
|--------------------|
|--------------------|

---------------------|---------------------|
---------------------|---------------------|
--/10----------------|--/12----------------|
---------------------|---------------------|
---------------------|---------------------|
---------------------|---------------------|


|------------------------------------------|
|------------------------------------------|
|*------10p-9-------------10p-9------------|
|*------------------------------10h-12-----|
|------------------------------------------|
|---0-0-------0-0-0-0-0-0--------------0-0-|


                                              4x
----------------------------------------------||
----------------------------------------------||
----10p-9-------------12p-10-----------------*||
-------------------------------13p-12--------*||
--------------------------------------13p-12--||
--0-------0-0-0-0-0-0--------0----------------||


                                                                      4x
-----------------------------------------------|----------------------||
-----------------------------------------------|---------10p-8--------||
*------10p-9------------10p-9------------10p-9-|---------------10p-9-*||
*------------10h-12-----------10h-12-----------|--10h-12-------------*||
-----------------------------------------------|----------------------||
---0-0--------------0-0--------------0-0-------|----------------------||

-------------------|-------------------------|
-------------------|-------------------------|
--9----------------|--10-9-7-9---------------|
-------------------|-------------------------|
-------------------|-------------------------|
-------------------|-------------------------|


--------------------------------------------|
--------------------------------------------|
-------------------------------10p9---------|
-------------------------------------10h12--|
--0--0--0--0--0-------0--0--0---------------|
--0--0--0--0--0-------0--0--0---------------|
PM------------------------------------------|

----------------------------------------------|
--------------------------------------10p8----|
--------------------------------10p9----------|
----------------------------------------------|
-----8--8--8--8--8\----8--8--8----------------|
-----8--8--8--8--8\----8--8--8----------------|
PM--------------------------------------------|

|-------------------------------------------------------|
|-------------------------------------------------------|
|*--------------10p9---------------------10p9-----------|
|*--------------------10h12--------------------10h12----|
|---0--0--0--0---------------0--0--0--0-----------------|
|---0--0--0--0---------------0--0--0--0-----------------|
PM------------------------------------------------------|              .  .  .  .

                                  6x
----------------------------------||---------------------|
----------------------------------||---------------------|
---------------------------------*||---------------------|
---------------------------------*||--8------------------| (Clean part)
--8--8--8--8--8------8--8--8--8---||--8------------------|
--8--8--8--8--8------8--8--8--8---||--8------------------|
PM-------------------------------------------------------|

 After that, it is:
|------------------------------|-------------------|
|------------------------------|-------------------|
|*-----10-10-10-10-12-12-12-12-|-------------------|Figure out the strumming
|*-----------------------------|-------------------|
|---0...-----------------------|--8...-------------|
|---0...-----------------------|--8...-------------|

---------------------------||-----------------------|--------------------|
---------------------------||-----------------------|--------------------|
------10-10-10-10-9-9-9-9-*||--7--------9-----------|--12----------------|
--------------------------*||-----------------------|--------------------|
--10...--------------------||-----------------------|--------------------|
--10...--------------------||-----------------------|--------------------|

-------------------||
-------------------||
-------------------||
-------------------||
--0----------------||
--0----------------||

There you go, rate and comment please
            
Submit corrections

comments powered by Disqus
↑ Back to top | Blessthefall Tabs for Theres A Fine Line Between Love And Hate. Lyrics for acoustic guitar and electric guitar. Tablatures and chords are parodies/interpretations of the original songs. You may use it for private study, scholarship, research or language learning purposes only