» » »

Blessthefall, Take Me Now Tabs (ver.3)

Artists:  A B C D E F G H I J K L M N O P Q R S T U V W X Y Z # 

Take Me Now Tabs (ver.3)

Blessthefall Tabs
Rating:
0/5 (0 votes)
Take Me Now lessons Tabs too difficult? Try these video lessons and learn fast
                (Intro)
Take Me Now (Intro)

This intro is actually keys, but I just played it with my guitar to try...
Hahah... I think it's correct...
jus to post something... ^^


 |---------------------------------------------------------------------|
 |---------------------------------------------------------------------|
 |-6-8-9-8-9-8-6-4--6-8-9-8-9-8-6-4--6-8-9-8-9-8-6-4--6-8-9-8-9-8-6-4--|
 |---------------------------------------------------------------------|
 |---------------------------------------------------------------------|
 |---------------------------------------------------------------------|

 |------------7---7---7-----9---7---------------|
 |----9---9-------------------------9---7---9---|
 |-6-9-6-9-6-9-6-9-6-9-6-6-9-6-9-6-9-6-9-6-9----|
 |----------------------------------------------|
 |----------------------------------------------|
 |----------------------------------------------|

 |--------------7----------------------7-----------|
 |------9---7-------9---7------9---7-------9---7---|
 |-6-6-9-6-9-6-9-6-9-6-9--6-6-9-6-9-6-9-6-9-6-9----|
 |-------------------------------------------------|
 |-------------------------------------------------|
 |-------------------------------------------------|

 |--------------7---7---7-----9---7---------------|
 |------9---9-------------------------9---7---9---|
 |-6-6-9-6-9-6-9-6-9-6-9-6-6-9-6-9-6-9-6-9-6-9----|
 |------------------------------------------------|
 |------------------------------------------------|
 |------------------------------------------------|


 |--------------7----------------------------------|
 |------9---7-------9---7-------9---7-5~-4~--------|
 |-6-6-9-6-9-6-9-6-9-6-9---6-6-9-6-9------4~-6~----|
 |-------------------------------------------------|
 |-------------------------------------------------|
 |-------------------------------------------------|

Then after that part Craigafer will laugh...
Hahahah..
I think that's all of the intro... ^^
            
Submit corrections

comments powered by Disqus
↑ Back to top | Blessthefall Tabs for Take Me Now. Lyrics for acoustic guitar and electric guitar. Tablatures and chords are parodies/interpretations of the original songs. You may use it for private study, scholarship, research or language learning purposes only