» » »

Blessthefall, Take Me Now Bass tabs (ver.1)

Artists:  A B C D E F G H I J K L M N O P Q R S T U V W X Y Z # 

Take Me Now Bass tabs (ver.1)

Blessthefall Tabs
Rating:
0/5 (0 votes)
Take Me Now lessons Tabs too difficult? Try these video lessons and learn fast
                
Drop D

Fig. 1 (x2) 0:05 -0:28

G|---------------------------------------------|
D|---------------------------------------------|
A|---------------------------------------------|
D|-0-0-0--0-0--0-0-0--0-0-0--0-0--0-0-0-0-0-0--|

G|---------------------------------------------|
D|---------------------------------------------| 
A|---------------------------------------------|
D|-3-3-3--3-3--3-3-3--2-2-2--3-3-2-2-2-2-------|

Fig. 2 (x2) 0:29 – 0:55

G|--------------------------------------------|
D|--------------------------------------------|
A|--------------------------------------------|
D|-0-0-0~--0-0~--0-0-0--0-0-0~--0-0~--0-0-0---|

G|-------------------------------------------------|
D|-------------------------------------------------| 
A|-------------------------------------------------|
D|-3-3-3~--3-3~--3-3-3--2-2-2~--3-3~--2-2-2--2-2---|

Fig. 3 (x1) 0:56 – 1:08

G|--------------------------------------------------------------|
D|--------------------------------------------------------------|
A|--------------------------------------------------------------|
D|-0~--0-0-0--0~--0-0-0—3~--3-3-3-2-2-2-2-2-2-2-2-3-3-3-3-2-2-2-|

Fig. 4 (x2) 1:08 – 1:31

G|--------------------------------------------------|
D|--------------------------------------------------|
A|--------------------------------------------------|
D|-0-0-0--0-0-0-0-0----------0-0-0--0-0-0-0-0-------|

G|--------------------------------------------------|
D|--------------------------------------------------|
A|--------------------------------------------------|
D|-3-3-3--3-3-3-3-3----------2-2-2--3-3--2-2-2-2----|

End 1:32 

G|----|
D|----|
A|----|
D|-0~-|
            

comments powered by Disqus
↑ Back to top | Blessthefall Bass for Take Me Now. Lyrics for acoustic guitar and electric guitar. Tablatures and chords are parodies/interpretations of the original songs. You may use it for private study, scholarship, research or language learning purposes only