» » »

Bleeding Through, Revenge I Seek Tabs (ver.1)

Artists:  A B C D E F G H I J K L M N O P Q R S T U V W X Y Z # 

Revenge I Seek Tabs (ver.1)

Bleeding Through Tabs
 Rating:
4.4/5 (7 votes)
Revenge I Seek lessons Tabs too difficult? Try these video lessons and learn fast
1
                Intro: start playing at 0:30
C#|----------------|----------------|----------------|----------------||
G#|----------------|----------------|----------------|----------------||
 E|----------------|----------------|----------------|----------------||
 B|----------------|----------------|----------------|----------------||
F#|-00-00-00-00----|--00-00-00-00---|--00-00-00-00---|-00-00-00-00----||
 B|-00-00-00-00----|--00-00-00-00---|--00-00-00-00---|-00-00-00-00----||

Then Move to this transition at 0:36-1:08
C#|----------------|----------------|----------------|----------------||
G#|----------------|----------------|----------------|-----------3~~--||
 E|----------------|----------------|----------------|-----3----------||
 B|----------------|----------------|----------------|----------------||
F#|-00-00-00-00----|--00-00-00-00---|--00-00-00-00---|-000---0--------||
 B|-00-00-00-00----|--00-00-00-00---|--00-00-00-00---|-000---0--------||

play this part from 1:08-1:18
C#|----------------|----------------||
G#|--------------3~|----------------||
 E|-----------3----|----------5---3^||
 B|----------------|----------------||
F#|3-3-3--000--0---|1-1-1-----------||
 B|3-3-3--000--0---|1-1-1--00--00---||

transition to this part at 1:18-1:28
C#|----------------|----------------|----------------|----------------||
G#|--------------3~|--------------3^|--------------3~|--------------3^||
 E|-----------3----|----------5-----|------------3---|----------5-----||
 B|----------------|----------------|----------------|----------------||
F#|0-0-0--000--0---|1-1-1--00--00---|-3-3-3--000--0--|1-1-1-----------||
 B|0-0-0--000--0---|1-1-1--00--00---|-3-3-3--000--0--|1-1-1--00--00---||

play this from 1:28-1:34
C#|----------------------------|--------------------------------||
G#|----------------------------|--------------------------------||
 E|----------------------------|--------------------------------||
 B|------7/8----7/8----6/7-----|-------7/8----------------------||
F#|------5/6----5/6----4/5-----|-------5/6----------------------||
 B|0-000-----00-----00------000|-0-000-----000-44444444-77777777||

play this at 1:34-1:40
C#|----------------------------|-------------------||
G#|----------------------------|-------------------||
 E|----------------------------|-------------------||
 B|------7/8----7/8----6/7-----|------7/8----------||
F#|------5/6----5/6----4/5-----|------5/6--4-5-4-7-||
 B|0-000-----00-----00------000|0-000------4-5-4-7-||

play this from 1:40-2:02
C#|----------------------------|--------------------------------||
G#|----------------------------|--------------------------------||
 E|----------------------------|--------------------------------||
 B|------7/8----7/8----6/7-----|-------7/8----------------------||
F#|------5/6----5/6----4/5-----|-------5/6----------------------||
 B|0-000-----00-----00------000|-0-000-----000-44444444-77777777||

play this from 2:02-2:10
C#|----------------|----------------||
G#|----------------|----------------||
 E|-2-3-2-0-2-3-2~~|-2-3-2----------||
 B|----------------|-------7777-2222||
F#|----------------|-------5555-0000||
 B|----------------|----------------||

anymore, and you're societies whore. 2:10-2:20
C#|----------------|----------------||
G#|----------------|----------------||
 E|----------------|----------------||
 B|--4----5----8---|--4----8----7---||
F#|--2----3----6---|--2----6----5---||
 B|----------------|----------------||

2:20-2:40
C#|----------------|----------------|----------------|----------------||
G#|----------------|----------------|----------------|-----------3~~--||
 E|----------------|----------------|----------------|-----3----------||
 B|----------------|----------------|----------------|----------------||
F#|-00-00-00-00----|--00-00-00-00---|--00-00-00-00---|-000---0--------||
 B|-00-00-00-00----|--00-00-00-00---|--00-00-00-00---|-000---0--------||

2:40-2:52
C#|----------------|----------------||
G#|----------------|----------------||
 E|-2-3-2-0-2-3-2~~|-2-3-2----------||
 B|----------------|-------7777-2222||
F#|----------------|-------5555-0000||
 B|----------------|----------------||

anymore, and you're societies whore. 2:52-3:00
C#|----------------|----------------||
G#|----------------|----------------||
 E|----------------|----------------||
 B|--4----5----8---|--4----8----7---||
F#|--2----3----6---|--2----6----5---||
 B|----------------|----------------||

3:00-3:10
C#|----------------|----------------|----------------|----------------||
G#|--------------3~|--------------3^|--------------3~|--------------3^||
 E|-----------3----|----------5-----|------------3---|----------5-----||
 B|----------------|----------------|----------------|----------------||
F#|0-0-0--000--0---|1-1-1--00--00---|-0-0-0--000--0--|1-1-1-----------||
 B|0-0-0--000--0---|1-1-1--00--00---|-0-0-0--000--0--|1-1-1--00--00---||

3:10-3:38-f**k You forever
C#|----------------|----------------|----------------|----------------||
G#|----------------|----------------|----------------|----------------||
 E|----------------|----------------|----------------|-------------7-6||
 B|----------------|----------------|----------------|----------------||
F#|-00-00-00-00----|--00-00-00-00---|--00-00-00-00---|-00-00-00-00----||
 B|-00-00-00-00----|--00-00-00-00---|--00-00-00-00---|-00-00-00-00----||

3:38-4:00
C#|----------------------------|--------------------------------||
G#|----------------------------|--------------------------------||
 E|----------------------------|--------------------------------||
 B|------7/8----7/8----6/7-----|-------7/8----------------------||
F#|------5/6----5/6----4/5-----|-------5/6----------------------||
 B|0-000-----00-----00------000|-0-000-----000-44444444-77777777||

4:00-4:10
C#|----------------|----------------||
G#|----------------|----------------||
 E|-2-3-2-0-2-3-2~~|-2-3-2----------||
 B|----------------|-------7777-2222||
F#|----------------|-------5555-0000||
 B|----------------|----------------||

anymore, and you're societies whore. 4:10-4:21
C#|----------------|----------------||
G#|----------------|----------------||
 E|----------------|----------------||
 B|--4----5----8---|--4----8----7---||
F#|--2----3----6---|--2----6----5---||
 B|----------------|----------------||
            
Submit corrections

comments powered by Disqus
↑ Back to top | Bleeding Through Tabs for Revenge I Seek. Lyrics for acoustic guitar and electric guitar. 1 Tablatures and chords are parodies/interpretations of the original songs. You may use it for private study, scholarship, research or language learning purposes only