>
 >
Revenge I Seek 1

Revenge I Seek 1 Guitar Tabs

Bleeding Through - Revenge I Seek 1 chords, tabs, tablatures, lyrics

Guitar lessons | Add/correct | Request | Top 50 tabs Artists:  A B C D E F G H I J K L M N O P Q R S T U V W X Y Z 0-9

Revenge I Seek 1 Guitar Tabs – Bleeding Through

CD, Sheet music, Poster

Do you like Revenge I Seek 1? Share with your friends now
TabsTabs v2
Bleeding Through
Revenge I Seek (Track 12)
This is Love, This is Murderous

Tuning: Drop B - From Low to High (B,F#,B,E,G#,C#)

 (00.00 - 00.24)

 (00.24 - 00.30)


Intro (00.30 - 01.29)
Guitar 1 Only
|----------------|
|----------------|
|----------------| X4
|----------------|
|----------------|
|-000-000-000-0--|
  ... ... ... .

Guitars 1 & 2                                            (A.H)
|---------------------------------------------------------------|
|---------------------------------------------------------------|
|---------------------------------------------------------(3b)--| X6
|----------------------------------------------------3----------|
|---------------------------------------------------------------|
|-000-000-000-0--000-000-000-0--000-000-000-0--0-0-0---0-0------|
  ... ... ... .  ... ... ... .  ... ... ... .  . . .   . .

                    (A.H)         (A.H)     (A.H)
|--------------------------------------------------|
|--------------------------------------------------|
|-------------------(3b)-----------(5b)------------|
|-3-3-3-------3----------1-1-1--------------(3b)---|
|-3-3-3------------------1-1-1---------------------|
|-3-3-3-0-0-0---0-0------1-1-1-0-0------0-0--------|
        . . .   . .            . .      . .

                    (A.H)         (A.H)    (A.H)
|--------------------------------------------------|
|--------------------------------------------------|
|-------------------(3b)-----------(5b)------------|
|-0-0-0-------3----------1-1-1--------------(3b)---| X3
|-0-0-0------------------1-1-1---------------------|
|-0-0-0-0-0-0---0-0------1-1-1-0-0------0-0--------|
        . . .   . .            . .      . .


Pre Verse (01.29 - 01.40)
Guitar 1
|--------------------------------------------------------------------|
|--------------------------------------------------------------------|
|--------------------------------------------------------------------|
|-------7/8-----7/8-----6/7-------------7/8-----6/7------------------|
|-------5/6-----5/6-----4/5-------------5/6-----4/5------------------|
|-0-000-----000-----000-----000-000-000-----000-----000-0-4444-7777--|
  . ...     ...     ...     ... ... ...     ...     ... . .... ....
 
Guitar 2 (Fade Out)
|--------------------------------------------------------------------|
|--------------------------------------------------------------------|
|--------------------------------------------------------------------|
|-0~~~~~~~~~~~~~~~~~~~~~~~~~~~~~~~~~~~~~~~~~~~~~~~~~~~~~~~~~~~~~~~~--|
|-0~~~~~~~~~~~~~~~~~~~~~~~~~~~~~~~~~~~~~~~~~~~~~~~~~~~~~~~~~~~~~~~~--|
|-0~~~~~~~~~~~~~~~~~~~~~~~~~~~~~~~~~~~~~~~~~~~~~~~~~~~~~~~~~~~~~~~~--|


Continued...
Guitar 1
|-------------------------------------------------------|
|-------------------------------------------------------|
|-------------------------------------------------------|
|-------7/8-----7/8-----6/7-------------7/8----45--47---|
|-------5/6-----5/6-----4/5-------------5/6----45--47---|
|-0-000-----000-----000-----000-000-000--------45--47---|
  . ...     ...     ...     ... ... ...     

Guitar 2
|-------------------------------------------------------|
|-------------------------------------------------------|
|-------------------------------------------------------|
|----------------------------------------------45--47---|
|----------------------------------------------45--47---|
|----------------------------------------------45--47---|


Verse (01.40 - 02.01)
Guitars 1 & 2
|--------------------------------------------------------------------|
|--------------------------------------------------------------------|
|--------------------------------------------------------------------|
|-------7/8-----7/8-----6/7-------------7/8-----6/7------------------|
|-------5/6-----5/6-----4/5-------------5/6-----4/5------------------|
|-0-000-----000-----000-----000-000-000-----000-----000-0-4444-7777--|\
  . ...     ...     ...     ... ... ...     ...     ... . .... ....     X2
                                                                       /
                                                              (A.H)   /
|-----------------------------------------------------------------|  / 
|-----------------------------------------------------------------| /
|-----------------------------------------------------------(3b)--|
|-------7/8-----7/8-----6/7-------------7/8-----6/7---------------|
|-------5/6-----5/6-----4/5-------------5/6-----4/5---------------|
|-0-000-----000-----000-----000-000-000-----000------0-4444-------|
  . ...     ...     ...     ... ... ...     ...      . .... 


Fill (02.01 - 02.11)
Guitars 1 & 2
                  (A.H)
|---------------------------------------------|
|---------------------------------------------|
|-----2-3-2-0-2-3-(2b)-----2-3-2--------------| X2
|---------------------------------7~-2~-------|
|---------------------------------5~-0~-------|
|-0-0------------------0-0--------------------|
  . .                  . . 

Chorus (02.11 - 02.20)
Guitar 1                     
|------------------------------------------------------------|
|------------------------------------------------------------|
|------------------------------------------------------------|
|-4~~~~~~~~~~~~~~~~~~~~~~~~~~~~~--5~~~~~~~~~--8~~~~~~~~~~~~--|
|-2~~~~~~~~~~~~~~~~~~~~~~~~~~~~~--3~~~~~~~~~--6~~~~~~~~~~~~--|
|------------------------------------------------------------|

Guitar 2
|------------------------------------------------------------|
|------------------------------------------------------------|
|------------------------------------------------------------|
|------------------------------------------------------------|
|----2---0---2---3---2---0---2-----2---0---2---5---3---2---3-|
|-00---0---0---0---0---0---0----00---0---0---0---0---0---0---|
  ..   .   .   .   .   .   .    ..   .   .   .   .   .   .

Continued...
Guitar 1
               (A.H)
|------------------------------------------------------------|
|------------------------------------------------------------|
|--------------(2b)~~~~~~~~~~~~~-----------------------------|
|-4~~~~~~~~~~~---------------------8~~~~~~~~~~--7~~~~~~~~~~~-|
|-2~~~~~~~~~~~---------------------6~~~~~~~~~~--5~~~~~~~~~~~-|
|------------------------------------------------------------|


Guitar 2
|------------------------------------------------------------|
|------------------------------------------------------------|
|------------------------------------------------------------|
|------------------------------------------------------------|
|----2---0---2---3---2---0---2-----2---0---2---5---3---2---3-|
|-00---0---0---0---0---0---0----00---0---0---0---0---0---0---|
  ..   .   .   .   .   .   .    ..   .   .   .   .   .   


Riff 1 (02.20 - 02.41)
Guitars 1 & 2                                                     (A.H)
|-----------------------------------------------------------------------|
|-----------------------------------------------------------------------|
|------------------------------------------------------------------(3b)-| X4
|-------------------------------------------------------------3---------|
|-----------------------------------------------------------------------|
|-000-000-000--0-0--000-000-000--0-0--000-000-000--0-0--0-0-0---0-0-----|
  ... ... ...  . .  ... ... ...  . .  ... ... ...  . .  . . .   . .


Fill (02.41 - 02.51)
Guitars 1 & 2
                  (A.H)
|---------------------------------------------|
|---------------------------------------------|
|-----2-3-2-0-2-3-(2b)-----2-3-2--------------| X2
|---------------------------------7~-2~-------|
|---------------------------------5~-0~-------|
|-0-0------------------0-0--------------------|
  . .                  . .


Chorus (02.51 - 03.00)
Guitar 1                     
|------------------------------------------------------------|
|------------------------------------------------------------|
|------------------------------------------------------------|
|-4~~~~~~~~~~~~~~~~~~~~~~~~~~~~~--5~~~~~~~~~--8~~~~~~~~~~~~--|
|-2~~~~~~~~~~~~~~~~~~~~~~~~~~~~~--3~~~~~~~~~--6~~~~~~~~~~~~--|
|------------------------------------------------------------|

Guitar 2
|------------------------------------------------------------|
|------------------------------------------------------------|
|------------------------------------------------------------|
|------------------------------------------------------------|
|----2---0---2---3---2---0---2-----2---0---2---5---3---2---3-|
|-00---0---0---0---0---0---0----00---0---0---0---0---0---0---|
  ..   .   .   .   .   .   .    ..   .   .   .   .   .   .

Continued...
Guitar 1
               (A.H)                                   (A.H)
|------------------------------------------------------------|
|------------------------------------------------------------|
|--------------(2b)~~~~~~~~~~~~~------------------------(2b)-|
|-4~~~~~~~~~~~---------------------8~~~~~~~~~~--7~~~~~~~-----|
|-2~~~~~~~~~~~---------------------6~~~~~~~~~~--5~~~~~~~-----|
|------------------------------------------------------------|


Guitar 2
|------------------------------------------------------------|
|------------------------------------------------------------|
|------------------------------------------------------------|
|------------------------------------------------------------|
|----2---0---2---3---2---0---2-----2---0---2---5---3---2---3-|
|-00---0---0---0---0---0---0----00---0---0---0---0---0---0---|
  ..   .   .   .   .   .   .    ..   .   .   .   .   . 


Intro Riff, Pt 2 (03.00 - 03.11)
Guitars 1 & 2
                    (A.H)         (A.H)     (A.H)
|--------------------------------------------------|
|--------------------------------------------------|
|-------------------(3b)-----------(5b)------------| X2
|-0-0-0-------3----------1-1-1--------------(3b)---|
|-0-0-0------------------1-1-1---------------------|
|-0-0-0-0-0-0---0-0------1-1-1-0-0------0-0--------|
        . . .   . .            . .      . .

Fill 2 (03.11 - 03.17)
Guitar 1                                                (A.H)
|-------------------------------------------------------------|
|-------------------------------------------------------------|
|-------------------------------------------------------------|
|-------------------------------------------------------------|
|--------------------------------------------------------(2b)-|
|-000-000-000---000-000-000---000-000-000---000-0-0--7-6------|
  ... ... ...   ... ... ...   ... ... ...   ... . .  . .

Guitar 2                                                 (A.H)
|-------------------------------------------------------------|
|-------------------------------------------------------------|
|-------------------------------------------------------------|
|-0~~~~~~~~~~~~~~~~~~~~~~~~~~~~~~~~~~~~~~~~~~~~~~~~~----------|
|-0~~~~~~~~~~~~~~~~~~~~~~~~~~~~~~~~~~~~~~~~~~~~~~~~~-----(2b)-|
|-0~~~~~~~~~~~~~~~~~~~~~~~~~~~~~~~~~~~~~~~~~~~~~~~~~-7-6------|
                                                     . .


Breakdown (03.17 - 03.39)
Guitar 1                                                
|-------------------------------------------------------------|
|-------------------------------------------------------------|
|-------------------------------------------------------------|
|---------------------------------------------------0---------|
|---------------------------------------------------0---------|
|-000-000-000---000-000-000---000-000-000---000-0-0-0-0-7-6---|\
  ... ... ...   ... ... ...   ... ... ...   ... . .   . . .     \
                                                                 X2
Guitar 2                                                        /
|-------------------------------------------------------------|/
|-------------------------------------------------------------|
|-------------------------------------------------------------|
|---------------------------------------------------0---------|
|---------------------------------------------------0---------|
|-000-000-000---000-000-000---000-000-000---000-0-0-0-0-7-6---|
  ... ... ...   ... ... ...   ... ... ...   ... . .   . . .


Continued...
Guitar 1                                                
|-------------------------------------------------------------|
|-------------------------------------------------------------|
|-------------------------------------------------------------|
|---------------------------------------------------0---------|
|---------------------------------------------------0---------|
|-000-000-000---000-000-000---000-000-000---000-0-0-0-0-7-6---|
  ... ... ...   ... ... ...   ... ... ...   ... . .   . . .

Guitar 2
|-------------------------------------------------------------|
|-------------------------------------------------------------|
|-------------------------------------------------------------|
|-7~~~~~~~~~~~~~~~~~~~~~~~~~~-8~~~~~~~~~~~~-------------------|
|-------------------------------------------6~~~~~~~~~~~~~~---|
|-------------------------------------------------------------|


Guitar 1                                                
|-------------------------------------------------------------|
|-------------------------------------------------------------|
|-------------------------------------------------------------|
|---------------------------------------------------0---------|
|---------------------------------------------------0---------|
|-000-000-000---000-000-000---000-000-000---000-0-0-0-0-7-6---|
  ... ... ...   ... ... ...   ... ... ...   ... . .   . . .


Guitar 2                                                
|-------------------------------------------------------------|
|-------------------------------------------------------------|
|-------------------------------------------------------------|
|---------------------------------------------------0---------|
|---------------------------------------------------0---------|
|-000-000-000---000-000-000---000-000-000---000-0-0-0-0-7-6---|
  ... ... ...   ... ... ...   ... ... ...   ... . .   . . .


Verse (03.39 - 04.00)


Fill (04.00 - 04.10)
Guitars 1 & 2                           *A bit different
|---------------------------------------------|
|---------------------------------------------|
|-----2-3-2-0-2-2-2----2-3-2------------------| X2
|---------------------------------7~-2~-------|
|---------------------------------5~-0~-------|
|-0-0------------------0-0--------------------|
  . .                  . .


Chorus (04.10 - 04.21)
Guitar 1                     
|------------------------------------------------------------|
|------------------------------------------------------------|
|------------------------------------------------------------|
|-4~~~~~~~~~~~~~~~~~~~~~~~~~~~~~--5~~~~~~~~~--8~~~~~~~~~~~~--|
|-2~~~~~~~~~~~~~~~~~~~~~~~~~~~~~--3~~~~~~~~~--6~~~~~~~~~~~~--|
|------------------------------------------------------------|

Guitar 2
|------------------------------------------------------------|
|------------------------------------------------------------|
|------------------------------------------------------------|
|------------------------------------------------------------|
|----2---0---2---3---2---0---2-----2---0---2---5---3---2---3-|
|-00---0---0---0---0---0---0----00---0---0---0---0---0---0---|
  ..   .   .   .   .   .   .    ..   .   .   .   .   .   .

Continued...
Guitar 1
               (A.H)                                   
|------------------------------------------------------------|
|------------------------------------------------------------|
|--------------(2b)~~~~~~~~~~~~~-----------------------------|
|-4~~~~~~~~~~~---------------------8~~~~~~~~~~--7~~~~~~~-----|
|-2~~~~~~~~~~~---------------------6~~~~~~~~~~--5~~~~~~~-----|
|------------------------------------------------------------|


Guitar 2
|------------------------------------------------------------|
|------------------------------------------------------------|
|------------------------------------------------------------|
|------------------------------------------------------------|
|----2---0---2---3---2---0---2-----2---0---2---5---3---2---3-|
|-00---0---0---0---0---0---0----00---0---0---0---0---0---0---|
  ..   .   .   .   .   .   .    ..   .   .   .   .   .

End On
Guitar 1
|------|
|------|
|-(2b)-|
|------|
|------|
|------|

Guitar 2
|------|
|------|
|------|
|--0---|
|--0---|
|--0---|
   .

______________________________
                             |
(N.H) - Natural Harmonic     |
(A.H) - Artificial Harmonic  |
p - Pull-Off                 |
h - Hammer-On                |
X/////- Pick Scrape          |
b - Bend                     |
^ - Vibrato                  |
. - Palm Mute                |
~ - Let Note Ring Out        |
/ - Slide                    |
TP - Tremelo Pick            |
______________________________


Well, that's it for Revenge I Seek. I put both guitars in at the same timings so if it helps, go for it.





Comments


Popular Bleeding Through tabs & chords
Line In The Sand 2 Bass Tabs
Love Lost In A Hail Of Gunfire 1 Bass Tabs
Line In The Sand Tabs
Love Lost In A Hail Of Gunfire 1 Tabs
On Wings Of Intro Tabs
On Wings Of Lead Tabs
Return To Sender Intro Tabs
This Is Love This Is Murderous Intro Tabs
Tragedy Of Empty Streets Tabs
Truth 1 Tabs


Song lyrics



↑ Back to top | Tablatures and chords are parodies/interpretations of the original songs. You may use it for private study, scholarship, research or language learning purposes only
© 2014 AZChords.com Contact us | Privacy policy | DMCA | Add/correct tabs | Request tabs | Top 50 tabs