>
 >
You Know Whos Seatbelt

You Know Whos Seatbelt Bass Tabs

Bled - You Know Whos Seatbelt chords, tabs, tablatures, lyrics

Guitar lessons | Add/correct | Request | Top 50 tabs Artists:  A B C D E F G H I J K L M N O P Q R S T U V W X Y Z 0-9

You Know Whos Seatbelt Bass Tabs – Bled

CD, Sheet music, Poster

Do you like You Know Whos Seatbelt? Share with your friends now
Bass Tabs
Artist    - The Bled
Song      - You Know Who's Seatbelt
Album     - Pass The Flask (2003)
Tuning    - D#

|-----------------------|
|-----------------------|
|-----------------------| x2
|--0000000000000000-----|


|---------------------------------------------------|
|---------------------------------------------------|
|----------------1111111111111111-3333333333333333--|
|000000000000000------------------------------------|


|----------------------------------------------------------------------|
|----------------------------------------------------------------------|
|---------3333333333333333----------------------------3333333333333333-|
|-00--00--------------------00--00--5555555555555555-------------------|


|---------------------------------|
|---------------------------------|
|---------------------------------|
|00000---00---0--0000-00--000-0---| (X2)

|-------------------------------------|
|-------------------------------------|
|-------------------------------------| x2
|000000000---00---0--0000-00--000-0-0-|

|---------|
|---------|
|---------|
|00000000-

|------------------------------------------------------------|
|------------------------------------------------------------|
|7777-7-7777-7-5555-5-5555-5-3333-3-3333-3-22222222/55555555-|
|------------------------------------------------------------| (X2)

|-------------------------------------------------------------------|
|-------------------------------------------------------------------|
|33333333333333333333333333333333-----------------------------------|
|----------------------------------55555555555555555555555555555555-|

|---------------------------------|
|---------------------------------|
|5555555555555555-7777777777777777
|---------------------------------

|----------------------------------|
|----------------------------------|
|----------------------------------| x2
|00000---00---0--0000-00--000-0----|

|------------------------------------|
|------------------------------------|
|------------------------------------| x2
|000000000---00---0--0000-00--000-0--|

|---------------|
|---------------|
|---------------|
|00000000---000-|

(those are 10s) (X5 but just the opens on the first bar)
|-------------------------------------------|
|-----------------------------------10------|
|-------------------------------------109---|
|00------0-00-------0-00-----0--0087-----10-| 

Outro
|----------------------------|
|----------------------------|
|----------------------------|
|00---0-00--00--0000-0-00-00-| (X4)

End.





Comments


Popular Bled tabs & chords
Hotel Coral Essex Bass Tabs
Red Wedding Bass Tabs
Smoke Breaks 2 Bass Tabs
Sound Of Sulfur 1 Bass Tabs
We Are The Industry Bass Tabs
I Never Met Another Gemini Tabs
I Never Met Another Gemini 2 Tabs
My Assassin Tabs
Ruth Buzzi Better Watch Her Back Tabs
Sound Of Sulfur 1 Tabs


Song lyrics



↑ Back to top | Tablatures and chords are parodies/interpretations of the original songs. You may use it for private study, scholarship, research or language learning purposes only
© 2014 AZChords.com Contact us | Privacy policy | DMCA | Add/correct tabs | Request tabs | Top 50 tabs