» » »

Bled, You Know Who's Seatbelt Tabs (ver.1)

Artists:  A B C D E F G H I J K L M N O P Q R S T U V W X Y Z # 

You Know Who's Seatbelt Tabs (ver.1)

Bled Tabs
 Rating:
4/5 (4 votes)
You Know Who's Seatbelt lessons Tabs too difficult? Try these video lessons and learn fast
                TUNED 1 STEP DOWN - DGCFAD

GUITAR 1 (left speaker)
intro.
|---------------------|
|--8877881010887788---|
|--9999999-9-999999---|
|---------------------|
|---------------------|
|---------------------|
verse.
|---------------------------------------------------|
|----8--8-7h8---8--8--8-7h8---8--8877881010887788---|
|--11-11------11-11-11------11---9999999-9-999999---|
|---------------------------------------------------|
|---------------------------------------------------|
|---------------------------------------------------|

|--7~~--------------------------------|
|-----------8877881010121210108877----|
|-----------9999999-9-9-9-9-9-9999----|
|-------------------------------------|
|-------------------------------------|
|-------------------------------------|

|----------------0~-------0~~----|
|--8~---7~-------0~-------0~~----|
|--9~---9~-------0~-------0~~----|
|------------9~--9~--10~--10~----|
|------------9~--9~--10~--10~----|
|------------7~--7~--8~~--8~~----|
             ^^^^^^^^^^^^^^^play with a  LITTLe bit of wah 
|-------------------------| 
|--88778810108877881010---|    x5
|--9999999-9-9999999-9----|
|-------------------------|
|-------------------------|
|-------------------------|

"we set our hgearts on self destruuuuuct.."
|----------------------------------------------------|
|----------------------------------------------------|
|--------000----000----------------------------------|
|--------444----444----------------------------------|
|--22222-----22-----2----22---22---222---22---2------|
|--00000-----00-----0----00---00---000---00---0------|
PM .....     ..     .    ..   ..   ...   ..   .
|----------|
|--7*~~----|
|----------|
|----------|
|----------|
|----------|

|-------------------------------------------------------------|
|-------------------------------------------------------------|
|------------000-----000---0----------------------------------|
|------------444-----444---4----------------------------------|
|--222222222-----222-----2----222---222---222-2---22---2------|
|--000000000-----000-----0----000---000---000-0---00---0------|
PM .........     ...     .    ...   ...   ... .   ..   .
|--------------|
|--------------|
|--------------|
|--------------|
|--222222222---|
|--000000000---|
PM .........
|-------------------------| 
|--88778810108877881010---|    x8
|--9999999-9-9999999-9----|
|-------------------------|
|-------------------------|
|-------------------------|
then this
|------------8--------|
|----7-8-0-8---8-7----|    x12    
|---------------------|
|--5------------------|
|---------------------|
|---------------------|

then a little more of this
|----------------------------------------------------|
|----------------------------------------------------|
|--------000----000----------------------------------|
|--------444----444----------------------------------|
|--22222-----22-----2----22---22---222---22---2------|
|--00000-----00-----0----00---00---000---00---0------|
PM .....     ..     .    ..   ..   ...   ..   .
|----------|
|--7*~~----|
|----------|
|----------|
|----------|
|----------|

|-------------------------------------------------------------|
|-------------------------------------------------------------|
|------------000-----000---0----------------------------------|
|------------444-----444---4----------------------------------|
|--222222222-----222-----2----222---222---222-2---22---2------|
|--000000000-----000-----0----000---000---000-0---00---0------|
PM .........     ...     .    ...   ...   ... .   ..   .
|--------------|
|--------------|
|--------------|
|--------------|
|--222222222---|
|--000000000---|
PM .........

then this
|--8-8-8-8-8-8-8-8-8-8-8-8-8-8-8-8-8----|
|--1212121212121212121212121212121212---|    do it like 478350354 times
|---------------------------------------|
|---------------------------------------|
|---------------------------------------|
|---------------------------------------|

then something like this
|-----0-------0--------0-----------------------|
|-----0-------0--------0-----------------------|
|-----------------------------------5----------|
|-------------------------------------5-4------|
|--22----2-22-----2-22----2-----3-2------------|
|--00----0-00-----0-00----0-2-3-----------3----|
PM ..    . ..     . ..    .
|----------------------------------------------|
|----------------------------------------------|
|-----------------------------------5----------|
|-------------------------------------5-4------|
|--22----2-22-----2-22----2-----3-2------------|
|--00----0-00-----0-00----0-2-3-----------3----|
PM ..    . ..     . ..    .

bleh
|---------------------------------------------------------------|
|---------------------------------------------------------------|
|---------------------------------------------------------------|
|---------------------------------------------------------------|
|--22-2-22--22-2222--2-22-22-22--2-22-22-2222--2-22--22--22~~---|
|--00-0-00--00-0000--0-00-00-00--0-00-00-0000--0-00--00--00~~---|
PM .. . ..  .. ....  . .. .. ..  . .. .. ....  . ..  ..  ..

Okay..that's only the guitar on the left speaker...so if you have any problems or you
            
Submit corrections

comments powered by Disqus
↑ Back to top | Bled Tabs for You Know Who's Seatbelt. Lyrics for acoustic guitar and electric guitar. Tablatures and chords are parodies/interpretations of the original songs. You may use it for private study, scholarship, research or language learning purposes only