» » »

Bled, Smoke Breaks Bass tabs (ver.1)

Artists:  A B C D E F G H I J K L M N O P Q R S T U V W X Y Z # 

Smoke Breaks Bass tabs (ver.1)

Bled Tabs
Rating:
0/5 (0 votes)
Hard to play? Try these video lessons and learn fast.
                
SMOKE BREAKS (Bassline)
As recorded by The Bled
(From the 2010 Album HEAT FETISH)


	

Words and Music by The Bled

Gtr I (D G C F) - 'Bass'

   "Slave away, for the.."
    Metalcore Q=141
   4/4
    Gtr I
    S S S S S S S S S S S S S S S S   S S S S S S S S S S S S S S S S  3x
||----------------------------------|----------------------------------||
||o---------------------------------|---------------------------------o||
||o-2-2-2-2-2-2-2-2-2-2-2-2-2-2-2-2-|-2-2-2-2-2-2-2-2-2-2S3S4S5S6S8-8-o||
||----------------------------------|----------------------------------||


  S S S S S S S S S S S S S S S S   W
|---------------------------------|-------||
|---------------------------------|-------||
|-2-2-2-2-2-2-2-2-2-2-2-2-2-2-2-2-|-------||
|---------------------------------|-4\----||


   "At the end of the night.."
    S S S S S S S S S S S S S S S S   S S S S S S S S S S S S S S S S
||----------------------------------|-----------------------------------||
||o---------------------------------|----------------------------------o||
||o---------------------------------|----------------------------------o||
||--2-2-2-2-2-2-2-2-2-2-2-2-2-2-2-2-|-2-2-2-2-2-2-2-2-2-2-2-2-2-2-2-2---||


   "..anyone, and that's the.."
    S S S S S S S S S S S S S S S S   S S S S S S S S S S S S S S S S   3x
||----------------------------------|-----------------------------------||
||o---------------------------------|----------------------------------o||
||o-2-2-2-2-2-2-2-2-2-2-2-2-2-2-2-2-|-2-2-2-2-2-2-2-2-2-2S3S4S5S6S8-8--o||
||----------------------------------|-----------------------------------||


  S S S S S S S S S S S S S S S S   W
|---------------------------------|-------||
|---------------------------------|-------||
|-2-2-2-2-2-2-2-2-2-2-2-2-2-2-2-2-|-------||
|---------------------------------|-4\----||


 "Like my father.."
  S S S Q..   S S S S S S   S Q  S S S H
|-------------------------|------------------|
|-------------------------|------------3\----|
|-------------------------|------------------|
|-1-1-1-------1-1-1-1-1-1-|-1------1-1-------|


  S S S Q..   S S S S S S   S S S S S S S S H
|-------------------------|-----------------------|
|-------------------------|-----------------3\----|
|-------------------------|-----------------------|
|-1-1-1-------1-1-1-1-1-1-|-1-1-1-1-1-1-1-1-------|


  S S S Q..   S S S S S S   S Q  S S S E E E E
|-------------------------|--------------------|
|-------------------------|--------------3-3-3-|
|-------------------------|------------2-------|
|-1-1-1-------1-1-1-1-1-1-|-1------1-1---------|


  S S S Q..   S S S S S S   W          +W
|-------------------------|----------|--------|
|-------------------------|----------|--------|
|-------------------------|----------|--------|
|-1-1-1-------1-1-1-1-1-1-|-0--------|-(0)----|


  W          +W
|----------|--------||
|----------|--------||
|----------|--------||
|-0--------|-(0)----||


   "At dawn I awoke to go.."
    S S S S S S S S S S S S S S S S   S S S S S S S S S S S S S S S S   3x
||----------------------------------|-----------------------------------||
||o---------------------------------|----------------------------------o||
||o-2-2-2-2-2-2-2-2-2-2-2-2-2-2-2-2-|-2-2-2-2-2-2-2-2-2-2S3S4S5S6S8-8--o||
||----------------------------------|-----------------------------------||


                                          ~
  S S S S S S S S S S S S S S S S   H     H
|---------------------------------|------------||
|---------------------------------|------------||
|-2-2-2-2-2-2-2-2-2-2-2-2-2-2-2-2-|-------5----||
|---------------------------------|-4\---------||


   "On the company dime.."
    S S S S S S S S S S S S S S S S   S S S S S S S S S S S S S S S S
||----------------------------------|-----------------------------------||
||o---------------------------------|----------------------------------o||
||o---------------------------------|----------------------------------o||
||--2-2-2-2-2-2-2-2-2-2-2-2-2-2-2-2-|-2-2-2-2-2-2-2-2-2-2-2-2-2-2-2-2---||


   "Trudge on, workhorse.."
    S S Q.   S S Q.     S S S S S S S S H
||--------------------|----------------------|
||o-------------------|----------------------|
||o-------------------|----------------------|
||--0-0------0-0------|---0-0-0-0-0-0-0------|


  S S S S Q  E. E. E   S S E E E E  E  E  E
|--------------------|-----------------------||
|--------------------|----------------------o||
|---------8----------|-----8-8-8---11-14S17-o||
|-0-0-0-0----9--6--4-|-0-0-------------------||


  S S Q.   S S Q.     S S S S S S S S E E E E
|-------------------|-------------------------|
|-------------------|-------------------------|
|-------------------|-----------------5-5-5-5-|
|-0-0------0-0------|---0-0-0-0-0-0-0---------|


  S S Q.   S S Q.     S S S S S S S S E. E. E
|-------------------|-------------------------||
|-------------------|-------------------------||
|-------------------|-----------------5--5--5-||
|-0-0------0-0------|---0-0-0-0-0-0-0---------||


 "Bleed on.."
                      5/8             5/4
  S S S S Q  E. E. E   S S S S E. E.   S S S S E. E. E E E E E
|--------------------|---------------|-------------------------|
|--------------------|---------------|-------------------------|
|---------8----------|---------8-----|---------8---------------|
|-0-0-0-0----9--6--4-|-0-0-0-0----9--|-0-0-0-0----9--6-4---3---|


 4/4                   5/4
  S S S S E. E. E. E.   E. S  W
|---------------------|------------||
|---------------------|------------||
|---------8-----------|------/8----||
|-0-0-0-0----9--6--4--|-3----------||


   "This road is my bridge.."
   4/4                                  3/4
    S S Q.   S S Q.     E E E E E Q.     E E S S E E. S   +E  E. E. Q    4x
||--------------------|----------------|----------------|----------------||
||o-------------------|----------------|----------------|---------------o||
||o-------------------|----------------|----------------|---------------o||
||--0-0------0-0------|---0-0-0-0------|---0-0-0-0-8--8-|-(8)-8--8--8\---||


 "Cut the queen, just try.."
 4/4                                  3/4
                                                                  ~
  S S Q.   S S Q.     E E E E E Q.     E E S S E E. S   +E  E. E. Q
|-------------------|----------------|----------------|---------------|
|-------------------|----------------|----------------|---------------|
|-------------------|----------------|----------------|---------------|
|-0-0------0-0------|---0-0-0-0------|---0-0-0-0-8--8-|-(8)-8--8--8---|


 4/4                 3/4
  S S Q.   S S Q.     E E E E E E   Q.   E S S E
|-------------------|-------------|--------------||
|-------------------|-------------|--------------||
|-------------------|-------------|--------------||
|-0-0------0-0------|---0-0-0-0---|------0-0-0-0-||


 Outro
  H.=H                        A Little Slower Q=135
                             4/4
  E. E. E. E.   E. E. E. E.   W
|-------------|-------------|------|
|-------------|-------------|------|
|-3--3--3--3--|-3--3--3--3--|-3----|
|-------------|-------------|------|


  +W           +W           +W           +W
|------------|------------|------------|--------|
|------------|------------|------------|--------|
|-(3)--------|-(3)--------|-(3)--------|-(3)----|
|------------|------------|------------|--------|


  +W           +W           +W           +W
|------------|------------|------------|--------*|
|------------|------------|------------|--------*|
|-(3)--------|-(3)--------|-(3)--------|-(3)----*|
|------------|------------|------------|--------*|



Duration Legend
---------------
W - whole; H - half; Q - quarter; E - 8th; S - 16th; T - 32nd; X - 64th; a - acciaccatura
+ - note tied to previous; . - note dotted; .. - note double dotted
Uncapitalized letters represent notes that are staccato (1/2 duration)
Irregular groupings are notated above the duration line
Duration letters will always appear directly above the note/fret number it represents the
duration for.  Duration letters with no fret number below them represent rests.  Multi-
bar rests are notated in the form Wxn, where n is the number of bars to rest for.  Low
melody durations appear below the staff

Tablature Legend
----------------
 h   - hammer-on
 p   - pull-off
 b   - bend
 pb  - pre-bend
 r   - bend release (if no number after the r, then release immediately)
 /\  - slide into or out of (from/to "nowhere")
 s   - legato slide
 S   - shift slide
 - natural harmonic
[n]  - artificial harmonic
n(n) - tapped harmonic
 ~   - vibrato
 tr  - trill
 T   - tap
 TP  - trem. picking
 PM  - palm muting
\n/  - tremolo bar dip; n = amount to dip
 \n  - tremolo bar down
 n/  - tremolo bar up
/n\  - tremolo bar inverted dip
 =   - hold bend; also acts as connecting device for hammers/pulls
 <> - volume swell (louder/softer)
 x   - on rhythm slash represents muted slash
 o   - on rhythm slash represents single note slash

Misc Legend
-----------
 |  - bar
||  - double bar
||o - repeat start
o|| - repeat end
*|  - double bar (ending)
 :  - bar (freetime)
 $  - Segno
 &  - Coda
Tempo markers -  = BPM(8/16=s8/s16), where s8 = swing 8ths, s16 = swing 16ths
            

comments powered by Disqus
↑ Back to top | Bled Bass for Smoke Breaks. Lyrics for acoustic guitar and electric guitar. Tablatures and chords are parodies/interpretations of the original songs. You may use it for private study, scholarship, research or language learning purposes only