>
 >
Smoke Breaks

Smoke Breaks Guitar Tabs

Bled - Smoke Breaks chords, tabs, tablatures, lyrics

Guitar lessons | Add/correct | Request | Top 50 tabs Artists:  A B C D E F G H I J K L M N O P Q R S T U V W X Y Z 0-9

Smoke Breaks Guitar Tabs – Bled

CD, Sheet music, Poster

Do you like Smoke Breaks? Share with your friends now
Bass TabsBass Tabs v2Tabs

SMOKE BREAKS
As recorded by The Bled
(From the 2010 Album HEAT FETISH)

	

Words and Music by The Bled

Gtr I (D G C F A D) - 'Left Channel'
Gtr II (D G C F A D) - 'Right Channel'
Gtr III (D G C F A D) - 'Feedback'
Gtr IV (D G C F A D) - 'Clean Guitar'

 "Slave away, for the.."
  Metalcore Q=141
  Bb5
 4/4
  Gtr I
   S  S  S  S  S  S  S  S  S  S  S  S  S  S  S  S
|-------------------------------------------------|
|-------------------------------------------------|
|--4--4--4--4--4--4--4--4--4--4--4--4--4--4--4--4-|
|--3--3--3--3--3--3--3--3--3--3--3--3--3--3--3--3-|
|--2--2--2--2--2--2--2--2--2--2--2--2--2--2--2--2-|
|-------------------------------------------------|
|
| Gtr II *Play octaves in "Slave away.." w/ slight bends*
|  S  S  S  S  S  S  S  S  S  S  S  S  S  S  S  S
|-14-14-14-14-14-14-14-14-14-14-14-14-14-14-14-14-|
|--x--x--x--x--x--x--x--x--x--x--x--x--x--x--x--x-|
|-11-11-11-11-11-11-11-11-11-11-11-11-11-11-11-11-|
|-------------------------------------------------|
|-------------------------------------------------|
|-------------------------------------------------|


                                Cb5C#bDb5EbbFb5
   S  S  S  S  S  S  S  S  S  S  S  S  S  S  S  S
|--------------------------------------------------|
|--------------------------------------------------|
|--4--4--4--4--4--4--4--4--4--4S=5S=6S=7S=8S10-10--|
|--3--3--3--3--3--3--3--3--3--3S=4S=5S=6S=7S=9--9--|
|--2--2--2--2--2--2--2--2--2--2S=3S=4S=5S=6S=8--8--|
|--------------------------------------------------|
|
|  S  S  S  S  S  S  S  S  S  S  S  S  S  S  S  S
|-14-14-14-14-14-14-14-14-12-12-12-12-12-12-12-12--|
|--x--x--x--x--x--x--x--x--x--x--x--x--x--x--x--x--|
|-11-11-11-11-11-11-11-11--9--9--9--9--9--9--9--9--|
|--------------------------------------------------|
|--------------------------------------------------|
|--------------------------------------------------|


  Bb5
   S  S  S  S  S  S  S  S  S  S  S  S  S  S  S  S
|-------------------------------------------------|
|-------------------------------------------------|
|--4--4--4--4--4--4--4--4--4--4--4--4--4--4--4--4-|
|--3--3--3--3--3--3--3--3--3--3--3--3--3--3--3--3-|
|--2--2--2--2--2--2--2--2--2--2--2--2--2--2--2--2-|
|-------------------------------------------------|
|
|  S  S  S  S  S  S  S  S  S  S  S  S  S  S  S  S
|-14-14-14-14-14-14-14-14-14-14-14-14-14-14-14-14-|
|--x--x--x--x--x--x--x--x--x--x--x--x--x--x--x--x-|
|-11-11-11-11-11-11-11-11-11-11-11-11-11-11-11-11-|
|-------------------------------------------------|
|-------------------------------------------------|
|-------------------------------------------------|


                                Cb5C#bDbEbFb5
   S  S  S  S  S  S  S  S  S  S  S  S S S  S  S
|-----------------------------------------------|
|-----------------------------------------------|
|--4--4--4--4--4--4--4--4--4--4S=5S=6S7S8S10-10-|
|--3--3--3--3--3--3--3--3--3--3S=4S=5S6S7S=9--9-|
|--2--2--2--2--2--2--2--2--2--2S=3S=4S5S6S=8--8-|
|-----------------------------------------------|
|
|  S  S  S  S  S  S  S  S  S  S  S  S S S  S  S
|-14-14-14-14-14-14-14-14-12-12-12-12-7-7--7--7-|
|--x--x--x--x--x--x--x--x--x--x--x--x-x-x--x--x-|
|-11-11-11-11-11-11-11-11--9--9--9--9-4-4--4--4-|
|-----------------------------------------------|
|-----------------------------------------------|
|-----------------------------------------------|


  Bb5
   S  S  S  S  S  S  S  S  S  S  S  S  S  S  S  S
|-------------------------------------------------|
|-------------------------------------------------|
|--4--4--4--4--4--4--4--4--4--4--4--4--4--4--4--4-|
|--3--3--3--3--3--3--3--3--3--3--3--3--3--3--3--3-|
|--2--2--2--2--2--2--2--2--2--2--2--2--2--2--2--2-|
|-------------------------------------------------|
|
|  S  S  S  S  S  S  S  S  S  S  S  S  S  S  S  S
|-14-14-14-14-14-14-14-14-14-14-14-14-14-14-14-14-|
|--x--x--x--x--x--x--x--x--x--x--x--x--x--x--x--x-|
|-11-11-11-11-11-11-11-11-11-11-11-11-11-11-11-11-|
|-------------------------------------------------|
|-------------------------------------------------|
|-------------------------------------------------|


                                Cb5C#bDb5EbbFb5
   S  S  S  S  S  S  S  S  S  S  S  S  S  S  S  S
|-------------------------------------------------|
|-------------------------------------------------|
|--4--4--4--4--4--4--4--4--4--4S=5S=6S=7S=8S10-10-|
|--3--3--3--3--3--3--3--3--3--3S=4S=5S=6S=7S=9--9-|
|--2--2--2--2--2--2--2--2--2--2S=3S=4S=5S=6S=8--8-|
|-------------------------------------------------|
|
|  S  S  S  S  S  S  S  S  S  S  S  S  S  S  S  S
|-14-14-14-14-14-14-14-14-12-12-12-12-12-12-12-12-|
|--x--x--x--x--x--x--x--x--x--x--x--x--x--x--x--x-|
|-11-11-11-11-11-11-11-11--9--9--9--9--9--9--9--9-|
|-------------------------------------------------|
|-------------------------------------------------|
|-------------------------------------------------|


  Bb5
  Gtr I
   S  S  S  S  S  S  S  S  S  S  S  S  S  S  S  S
|-------------------------------------------------|
|-------------------------------------------------|
|--4--4--4--4--4--4--4--4--4--4--4--4--4--4--4--4-|
|--3--3--3--3--3--3--3--3--3--3--3--3--3--3--3--3-|
|--2--2--2--2--2--2--2--2--2--2--2--2--2--2--2--2-|
|-------------------------------------------------|
|
| Gtr II
|  S  S  S  S  S  S  S  S  S  S  S  S  S  S  S  S
|-14-14-14-14-14-14-14-14-14-14-14-14-14-14-14-14-|
|--x--x--x--x--x--x--x--x--x--x--x--x--x--x--x--x-|
|-11-11-11-11-11-11-11-11-11-11-11-11-11-11-11-11-|
|-------------------------------------------------|
|-------------------------------------------------|
|-------------------------------------------------|
|
| Gtr III
|  W
|-------------------------------------------------|
|-------------------------------------------------|
|-------------------------------------------------|
|-------------------------------------------------|
|-------------------------------------------------|
|-------------------------------------------------|


  G#b5
   PM
   W
|--------------------------------------------------||
|--------------------------------------------------||
|--------------------------------------------------||
|--------------------------------------------------||
|--5-----------------------------------------------||
|--4-----------------------------------------------||
|
|  S  S  S  S  S  S  S  S  S   S  S  S  S  S  S  S
|-12-12-12-12-12-12-12-12-12--12-12-12-12-12-12-12-||
|--x--x--x--x--x--x--x--x--x---x--x--x--x--x--x--x-||
|--9--9--9--9--9--9--9--9--9---9--9--9--9--9--9--9-||
|--------------------------------------------------||
|--------------------------------------------------||
|--------------------------------------------------||
|
|                          < *Feedback
|  H                       H
|--------------------------------------------------||
|-----------------------------------------------||
|-----------------------------------------------||
|--------------------------------------------------||
|--------------------------------------------------||
|--------------------------------------------------||


 "At the end of the night.."
  F#b5
  Gtr I
                     >
   TP                TP
   H                +H
|-------------------------------------|
|-------------------------------------|
|-17---------------(17)---------------|
|--x----------------(x)---------------|
|-15---------------(15)---------------|
|-------------------------------------|
|
| Gtr II
|  S S S S S S S S   S  S S S S S S S
|-------------------------------------|
|-------------------------------------|
|-------------------------------------|
|--4-4-4-4-4-4-4-4---4--4-4-4-4-4-4-4-|
|--3-3-3-3-3-3-3-3---3--3-3-3-3-3-3-3-|
|--2-2-2-2-2-2-2-2---2--2-2-2-2-2-2-2-|


               <
    TP         TP         TP
   +Q          Q         +H
|-------------20--------(20)---------------|
|------------------------------------------|
|-(17)-------(17)-------(17)---------------|
|--(x)--------(x)--------(x)---------------|
|-(15)-------(15)-------(15)---------------|
|------------------------------------------|
|
|   S  S S S   S  S S S   S  S S S S S S S
|------------------------------------------|
|------------------------------------------|
|------------------------------------------|
|---4--4-4-4---4--4-4-4---4--4-4-4-4-4-4-4-|
|---3--3-3-3---3--3-3-3---3--3-3-3-3-3-3-3-|
|---2--2-2-2---2--2-2-2---2--2-2-2-2-2-2-2-|


                     >
   TP                TP                  TP       TP       TP       TP
   H                +H                   Q        Q        Q        Q
|-------------------------------------|-------------------------------------||
|-------------------------------------|-------------------------------------||
|-17---------------(17)---------------|-17S======18S======19S======21-------||
|--x----------------(x)---------------|--x--------x--------x--------x-------||
|-15---------------(15)---------------|-15S======16S======17S======19-------||
|-------------------------------------|-------------------------------------||
|
|  S S S S S S S S   S  S S S S S S S    S S S S  S S S S  S S S S  S S S S
|-------------------------------------|-------------------------------------||
|-------------------------------------|-------------------------------------||
|-------------------------------------|-------------------------------------||
|--4-4-4-4-4-4-4-4---4--4-4-4-4-4-4-4-|--4-4-4-4--4-4-4-4--4-4-4-4--4-4-4-4-||
|--3-3-3-3-3-3-3-3---3--3-3-3-3-3-3-3-|--3-3-3-3--3-3-3-3--3-3-3-3--3-3-3-3-||
|--2-2-2-2-2-2-2-2---2--2-2-2-2-2-2-2-|--2-2-2-2--2-2-2-2--2-2-2-2--2-2-2-2-||


   "..anyone, and that's the.."
    Bb5                                                   CbC#DbEbFb5
    Gtrs I, II
    S S S S S S S S S S S S S S S S   S S S S S S S S S S S S S S  S  S   3x
||----------------------------------|-------------------------------------||
||o---------------------------------|------------------------------------o||
||--4-4-4-4-4-4-4-4-4-4-4-4-4-4-4-4-|-4-4-4-4-4-4-4-4-4-4S5S6S7S8S10-10---||
||--3-3-3-3-3-3-3-3-3-3-3-3-3-3-3-3-|-3-3-3-3-3-3-3-3-3-3S4S5S6S7S=9--9---||
||o-2-2-2-2-2-2-2-2-2-2-2-2-2-2-2-2-|-2-2-2-2-2-2-2-2-2-2S3S4S5S6S=8--8--o||
||----------------------------------|-------------------------------------||


  Bb5                               G#b5
                                    PM
  S S S S S S S S S S S S S S S S   W
|---------------------------------|------||
|---------------------------------|------||
|-4-4-4-4-4-4-4-4-4-4-4-4-4-4-4-4-|------||
|-3-3-3-3-3-3-3-3-3-3-3-3-3-3-3-3-|------||
|-2-2-2-2-2-2-2-2-2-2-2-2-2-2-2-2-|-5----||
|---------------------------------|-4----||


 "Like my father.."
  Fb5
  Gtr I
   PM---|                          PM----------------
   S  S  S  Q..                    S  S  S  S  S  S
|---------------------------------------------------|
|---------------------------------------------------|
|---------------------------------------------------|
|---------------------------------------------------|
|--2--2--2-------------------------2--2--2--2--2--2-|
|--1--1--1-------------------------1--1--1--1--1--1-|
|
| Gtr II
|  S  S  S  S    S  S  S  S  S  S  S  S  S  S  S  S
|-------16h17---------16h17-------16h17-------16h17-|
|-17h18---------17h18-------17h18-------17h18-------|
|---------------------------------------------------|
|---------------------------------------------------|
|---------------------------------------------------|
|---------------------------------------------------|
|
| Gtr III
|  W
|---------------------------------------------------|
|---------------------------------------------------|
|---------------------------------------------------|
|---------------------------------------------------|
|---------------------------------------------------|
|---------------------------------------------------|


                          N.C.   Bsus4 N.C.
 -|                  PM|  *Barely audible. The feedback drowns it out.
   S  Q           S  S  S  E      E     E     E
|--------------------------0------0----------------|
|--------------------------4------0-----0----------|
|---------------------------------------3-----0----|
|---------------------------------------------4----|
|--2-----------------2--2--------------------------|
|--1-----------------1--1--------------------------|
|
|  S  S  S  S  S  S  S  S  S   S  S  S  S  S  S  S
|-------16h17-------16h17--------16h17-------16h17-|
|-17h18-------17h18-------17h=18-------17h18-------|
|--------------------------------------------------|
|--------------------------------------------------|
|--------------------------------------------------|
|--------------------------------------------------|
|
|                          <
|  H                       H
|--------------------------------------------------|
|-----------------------------------------------|
|-----------------------------------------------|
|--------------------------------------------------|
|--------------------------------------------------|
|--------------------------------------------------|


  Fb5
   PM---|                          PM----------------
   S  S  S  Q..                    S  S  S  S  S  S
|---------------------------------------------------|
|---------------------------------------------------|
|---------------------------------------------------|
|---------------------------------------------------|
|--2--2--2-------------------------2--2--2--2--2--2-|
|--1--1--1-------------------------1--1--1--1--1--1-|
|
|  S  S  S  S    S  S  S  S  S  S  S  S  S  S  S  S
|-------16h17---------16h17-------16h17-------16h17-|
|-17h18---------17h18-------17h18-------17h18-------|
|---------------------------------------------------|
|---------------------------------------------------|
|---------------------------------------------------|
|---------------------------------------------------|
|
|  W
|---------------------------------------------------|
|---------------------------------------------------|
|---------------------------------------------------|
|---------------------------------------------------|
|---------------------------------------------------|
|---------------------------------------------------|


                          N.C.   Bsus4 N.C.
 ----------------------|
   S  S  S  S  S  S  S  S  E      E     E     E
|--------------------------0------0----------------|
|--------------------------4------0-----0----------|
|---------------------------------------3-----0----|
|---------------------------------------------4----|
|--2--2--2--2--2--2--2--2--------------------------|
|--1--1--1--1--1--1--1--1--------------------------|
|
|  S  S  S  S  S  S  S  S  S   S  S  S  S  S  S  S
|-------16h17-------16h17--------16h17-------16h17-|
|-17h18-------17h18-------17h=18-------17h18-------|
|--------------------------------------------------|
|--------------------------------------------------|
|--------------------------------------------------|
|--------------------------------------------------|
|
|                          <
|  H                       H
|--------------------------------------------------|
|-----------------------------------------------|
|-----------------------------------------------|
|--------------------------------------------------|
|--------------------------------------------------|
|--------------------------------------------------|


  Fb5
  Gtr I
   PM---|                          PM----------------
   S  S  S  Q..                    S  S  S  S  S  S
|---------------------------------------------------|
|---------------------------------------------------|
|---------------------------------------------------|
|---------------------------------------------------|
|--2--2--2-------------------------2--2--2--2--2--2-|
|--1--1--1-------------------------1--1--1--1--1--1-|
|
| Gtr II
|  S  S  S  S    S  S  S  S  S  S  S  S  S  S  S  S
|-------16h17---------16h17-------16h17-------16h17-|
|-17h18---------17h18-------17h18-------17h18-------|
|---------------------------------------------------|
|---------------------------------------------------|
|---------------------------------------------------|
|---------------------------------------------------|


                          Bb5   Fb5
 -|                  PM---|
   S  Q           S  S  S  E     E     E     E
|-------------------------------------------------|
|--------------------------------0-----0-----0----|
|--------------------------------4-----4-----4----|
|--------------------------3-----3-----3-----3----|
|--2-----------------2--2--2----------------------|
|--1-----------------1--1-------------------------|
|
|  S  S  S  S  S  S  S  S  S  S  S  S  S  S  S  S
|-------16h17-------16h17-------16h17-------16h17-|
|-17h18-------17h18-------17h18-------17h18-------|
|-------------------------------------------------|
|-------------------------------------------------|
|-------------------------------------------------|
|-------------------------------------------------|


                                                      Eb5
  Gtr I
   PM---|                          PM------------|
   S  S  S  Q..                    S  S  S  S  S  S    W            +W
|---------------------------------------------------|------------|----------|
|---------------------------------------------------|------------|----------|
|---------------------------------------------------|------------|----------|
|---------------------------------------------------|------------|----------|
|--2--2--2-------------------------2--2--2--2--2--2-|---------|-()----|
|--1--1--1-------------------------1--1--1--1--1--1-|------------|----------|
|
| Gtr II
|  S  S  S  S    S  S  S  S  S  S  S  S  S  S  S  S    W            +W
|-------16h17---------16h17-------16h17-------16h17-|------------|----------|
|-17h18---------17h18-------17h18-------17h18-------|------------|----------|
|---------------------------------------------------|------------|----------|
|---------------------------------------------------|--2---------|--(2)-----|
|---------------------------------------------------|--1---------|--(1)-----|
|---------------------------------------------------|--0---------|--(0)-----|


                   >
   +W             +W
|--------------|----------||
|--------------|----------||
|--------------|----------||
|--------------|----------||
|-()--------|-()----||
|--------------|----------||
|
|                  >
|  +W             +W
|--------------|----------||
|--------------|----------||
|--------------|----------||
|--(2)---------|--(2)-----||
|--(1)---------|--(1)-----||
|--(0)---------|--(0)-----||


   "At dawn I awoke to go.."
    Bb5                                                   CbC#DbEbFb5
    Gtrs I, II
    S S S S S S S S S S S S S S S S   S S S S S S S S S S S S S S  S  S   3x
||----------------------------------|-------------------------------------||
||o---------------------------------|------------------------------------o||
||--4-4-4-4-4-4-4-4-4-4-4-4-4-4-4-4-|-4-4-4-4-4-4-4-4-4-4S5S6S7S8S10-10---||
||--3-3-3-3-3-3-3-3-3-3-3-3-3-3-3-3-|-3-3-3-3-3-3-3-3-3-3S4S5S6S7S=9--9---||
||o-2-2-2-2-2-2-2-2-2-2-2-2-2-2-2-2-|-2-2-2-2-2-2-2-2-2-2S3S4S5S6S=8--8--o||
||----------------------------------|-------------------------------------||


  Bb5                               G#b5 Db5
  Gtrs I, II
                                    PM
  S S S S S S S S S S S S S S S S   H     S  S S S S S S S
|---------------------------------|------------------------||
|---------------------------------|------------------------||
|-4-4-4-4-4-4-4-4-4-4-4-4-4-4-4-4-|------------------------||
|-3-3-3-3-3-3-3-3-3-3-3-3-3-3-3-3-|-------6--6-6-6-6-6-6-6-||
|-2-2-2-2-2-2-2-2-2-2-2-2-2-2-2-2-|-5-----5--5-5-5-5-5-5-5-||
|---------------------------------|-4----------------------||
|
| Gtr III
|                                         <
| W                                 H     H
|---------------------------------|------------------------||
|---------------------------------|---------------------||
|---------------------------------|------------------------||
|---------------------------------|------------------------||
|---------------------------------|------------------------||
|---------------------------------|------------------------||


 "On the company dime.."
  F#b5
  Gtr I
                     >
   TP                TP
   H                +H
|-------------------------------------|
|-------------------------------------|
|-17---------------(17)---------------|
|--x----------------(x)---------------|
|-15---------------(15)---------------|
|-------------------------------------|
|
| Gtr II
|  S S S S S S S S   S  S S S S S S S
|-------------------------------------|
|-------------------------------------|
|-------------------------------------|
|--4-4-4-4-4-4-4-4---4--4-4-4-4-4-4-4-|
|--3-3-3-3-3-3-3-3---3--3-3-3-3-3-3-3-|
|--2-2-2-2-2-2-2-2---2--2-2-2-2-2-2-2-|


               <
    TP         TP         TP
   +Q          Q         +H
|-------------20--------(20)---------------|
|------------------------------------------|
|-(17)-------(17)-------(17)---------------|
|--(x)--------(x)--------(x)---------------|
|-(15)-------(15)-------(15)---------------|
|------------------------------------------|
|
|   S  S S S   S  S S S   S  S S S S S S S
|------------------------------------------|
|------------------------------------------|
|------------------------------------------|
|---4--4-4-4---4--4-4-4---4--4-4-4-4-4-4-4-|
|---3--3-3-3---3--3-3-3---3--3-3-3-3-3-3-3-|
|---2--2-2-2---2--2-2-2---2--2-2-2-2-2-2-2-|


   TP               TP       TP         TP       TP       TP       TP
   H                Q        Q          Q        Q        Q        Q
|------------------------------------|-------------------------------------||
|------------------------------------|-------------------------------------||
|-17---------------17S======18S======|=19S======20S======21S======22-------||
|--x----------------x--------x-------|--x--------x--------x--------x-------||
|-15---------------15S======16S======|=17S======18S======19S======20-------||
|------------------------------------|-------------------------------------||
|
|  S S S S S S S S  S S S S  S S S S    S S S S  S S S S  S S S S  S S S S
|------------------------------------|-------------------------------------||
|------------------------------------|-------------------------------------||
|------------------------------------|-------------------------------------||
|--4-4-4-4-4-4-4-4--4-4-4-4--4-4-4-4-|--4-4-4-4--4-4-4-4--4-4-4-4--4-4-4-4-||
|--3-3-3-3-3-3-3-3--3-3-3-3--3-3-3-3-|--3-3-3-3--3-3-3-3--3-3-3-3--3-3-3-3-||
|--2-2-2-2-2-2-2-2--2-2-2-2--2-2-2-2-|--2-2-2-2--2-2-2-2--2-2-2-2--2-2-2-2-||


   "Trudge on, workhorse.."
    E5    N.C.    E5    N.C.        E5            N.C.
    Gtrs I, II
    PM|           PM|               PM----------|
    S S S E   +E. S S S E   +E.   S S S S S S S S E.  E.  E
||------------------------------|-----------------------------|
||o-----------------------------|-----------------------------|
||------------------------------|-----------------------------|
||------------------------------|-----------------------------|
||o-2-2---1b2-(1)-2-2---1b2-(1)-|---2-2-2-2-2-2-2-1b2-1b2-1b2-|
||--0-0-----------0-0-----------|---0-0-0-0-0-0-0-------------|


  E5      Fb5 C#b5BbbG#b5E5  Fb5        G#bBb5Db5
  PM----|                PM|
  S S S S  Q   E. E. E   S S  E  E  E E  E  E  E
|----------------------|--------------------------||
|----------------------|-------------------------o||
|---------10-----------|-----10-10-10---13-16S19--||
|----------9--11--8--6-|------9--9--9---12-15S18--||
|-2-2-2-2--8--10--7--5-|-2-2--8--8--8---11-14S17-o||
|-0-0-0-0------9--6--4-|-0-0----------------------||


  E5    N.C.    E5    N.C.        E5            N.C.
  PM|           PM|               PM----------|
  S S S E   +E. S S S E   +E.   S S S S S S S S E E E E
|-----------------------------|-------------------------|
|-----------------------------|-------------------------|
|-----------------------------|-----------------7-7-7-7-|
|-----------------------------|-----------------x-x-x-x-|
|-2-2-----------2-2-----------|---2-2-2-2-2-2-2-5-5-5-5-|
|-0-0---5b6-(5)-0-0---5b6-(5)-|---0-0-0-0-0-0-0---------|


  E5    N.C.    E5    N.C.        E5            N.C.
  Gtr I
  PM|           PM|               PM----------|
  S S S E   +E. S S S E   +E.   S S S S S S S S  E.  E.  E
|-----------------------------|----------------------------||
|-----------------------------|----------------------------||
|-----------------------------|-----------------11--11--11-||
|-----------------------------|------------------x---x---x-||
|-2-2---1b2-(1)-2-2---4b5-(4)-|---2-2-2-2-2-2-2--9---9---9-||
|-0-0-----------0-0-----------|---0-0-0-0-0-0-0------------||
|
| Gtr II
| PM|           PM|               PM----------|
| S S S E   +E. S S S E   +E.   S S S S S S S S  E.  E.  E
|-----------------------------|----------------------------||
|-----------------------------|----------------------------||
|-----------------------------|------------------7---7---7-||
|-----------------------------|------------------x---x---x-||
|-2-2---1b2-(1)-2-2---1b2-(1)-|---2-2-2-2-2-2-2--5---5---5-||
|-0-0-----------0-0-----------|---0-0-0-0-0-0-0------------||


 "Bleed on.."
  E5      Fb5 C#b5BbbG#b5E5      Fb5 C#b5  E5      Fb5 C#b5BbG#b5Gb5
                        5/8               5/4
  Gtrs I, II
  PM----|                PM----|           PM----|
  S S S S  Q   E. E. E   S S S S  E.  E.   S S S S  E.  E. E E E E E
|----------------------|-----------------|---------------------------|
|----------------------|-----------------|---------------------------|
|---------10-----------|---------10------|---------10----------------|
|----------9--11--8--6-|----------9--11--|----------9--11--8-6---5---|
|-2-2-2-2--8--10--7--5-|-2-2-2-2--8--10--|-2-2-2-2--8--10--7-5---4---|
|-0-0-0-0------9--6--4-|-0-0-0-0------9--|-0-0-0-0------9--6-4---3---|


  E5      Fb5 C#b5BbbG#b5 Gb5  Fb5
 4/4                     5/4
  Gtr I
  PM----|
  S S S S  E.  E. E. E.   E. S  W
|-----------------------|-------------||
|-----------------------|-------------||
|---------10------------|----------||
|----------9--11--8--6--|-5--------||
|-2-2-2-2--8--10--7--5--|-4-----------||
|-0-0-0-0------9--6--4--|-3-----------||
|
| Gtr II
| PM----|
| S S S S  E.  E. E. E.   E. S  W
|-----------------------|-------------||
|-----------------------|-------------||
|---------10------------|------10-----||
|----------9--11--8--6--|-5-----9-----||
|-2-2-2-2--8--10--7--5--|-4-----8-----||
|-0-0-0-0------9--6--4--|-3-----------||


   "This road is my bridge.."
    E5
   4/4
    Gtr IV
     E    E   E  E  E    E   E  E    E  E  E  E  E  E   E  E
||-----------------12-------------|-------------12-----------|
||o-------------------------------|--------------------------|
||-------10-----10------10-----10-|----10----10----10-----10-|
||--14-------14-------------14----|-14----14-----------14----|
||o-------------------------------|--------------------------|
||--------------------------------|--------------------------|
|
|   Gtr I
|    PM|            PM|                 PM---|
|    S S  Q.        S S  Q.          E  E  E  E  E  Q.
||--------------------------------|--------------------------|
||o-------------------------------|--------------------------|
||--------------------------------|--------------------------|
||--------------------------------|--------------2-----------|
||o--2-2------------2-2-----------|-----2--2--2--2-----------|
||---0-0------------0-0-----------|-----0--0--0--0-----------|
|
|   Gtr II
|    PM|            PM|                 PM---|
|    S S  Q.        S S  Q.          E  E  E  E  E  Q.
||--------------------------------|--------------------------|
||o-------------------------------|--------------------------|
||--------------------------------|--------------------------|
||--------------------------------|--------------2-----------|
||o--2-2------------2-2-----------|-----2--2--2--2-----------|
||---0-0------------0-0-----------|-----0--0--0--0-----------|


                N.C.
 3/4
   E  E  E    E  Q       +H.
|---------------------|-----------------------|
|---------------------|-----------------------|
|----10------10-10----|-(10)------------------|
|-14----14------14----|-(14)------------------|
|---------------------|-----------------------|
|---------------------|-----------------------|
|
|     PM-----|
|  E  E  S S  E  E. S    +E  E.  E.  Q
|---------------------|-----------------------|
|---------------------|-----------------------|
|----------------5--5-|--(5)-5-------------|
|----------------x--x-|--(x)-x-------------|
|-----2--2-2--2--3--3-|--(3)-3----------------|
|-----0--0-0--0-------|-----------------------|
|
|     PM-----|
|  E  E  S S  E  E. S    +E  E.  E.  Q
|---------------------|-----------------------|
|---------------------|-----------------------|
|----------------5--5-|--(5)-5---5---5b5.5----|
|----------------x--x-|--(x)-x---x---x--------|
|-----2--2-2--2--3--3-|--(3)-3---3---3b3.5----|
|-----0--0-0--0-------|-----------------------|


  E5
 4/4
   E    E   E  E  E    E   E  E    E  E  E  E  E  E   E    E
|----------------12-------------|-------------12-------------|
|-------------------------------|----------------------------|
|------10-----10------10-----10-|----10----10----10-------10-|
|-14-------14-------------14----|-14----14-----------14------|
|-------------------------------|----------------------------|
|-------------------------------|----------------------------|
|
|  PM|            PM|                 PM---|      PM------|
|  S S  Q.        S S  Q.          E  E  E  E  E  E   S S  E
|-------------------------------|----------------------------|
|-------------------------------|----------------------------|
|-------------------------------|----------------------------|
|-------------------------------|--------------2-------------|
|--2-2------------2-2-----------|-----2--2--2--2--2---2-2--2-|
|--0-0------------0-0-----------|-----0--0--0--0--0---0-0--0-|
|
|  PM|            PM|                 PM---|
|  S S  Q.        S S  Q.          E  E  E  E  E  Q.
|-------------------------------|----------------------------|
|-------------------------------|----------------------------|
|-------------------------------|----------------------------|
|-------------------------------|--------------2-------------|
|--2-2------------2-2-----------|-----2--2--2--2-------------|
|--0-0------------0-0-----------|-----0--0--0--0-------------|


                N.C.
 3/4
   E  E  E    E  Q       +H.
|---------------------|------------------------||
|---------------------|-----------------------o||
|----10------10-10----|-(10)-------------------||
|-14----14------14----|-(14)-------------------||
|---------------------|-----------------------o||
|---------------------|------------------------||
|
|     PM-----|
|  E  E  S S  E  E. S    +E  E.  E.  Q
|---------------------|------------------------||
|---------------------|-----------------------o||
|----------------5--5-|--(5)-5--------------||
|----------------x--x-|--(x)-x--------------||
|-----2--2-2--2--3--3-|--(3)-3----------------o||
|-----0--0-0--0-------|------------------------||
|
|     PM-----|
|  E  E  S S  E  E. S    +E  E.  E.  Q
|---------------------|------------------------||
|---------------------|-----------------------o||
|----------------5--5-|--(5)-5---5---5b5.5-----||
|----------------x--x-|--(x)-x---x---x---------||
|-----2--2-2--2--3--3-|--(3)-3---3---3b3.5----o||
|-----0--0-0--0-------|------------------------||


 "Cut the queen, just try.."
  E5                                             N.C.
 4/4                                  3/4
  Gtr I
  PM|      PM|          PM--|            PM----|
  S S Q.   S S Q.     E E E E E Q.     E E S S E  E.  S    +E   E.  E.  Q
|-------------------|----------------|------------------|-------------------|
|-------------------|----------------|------------------|-------------------|
|-------------------|----------------|-----------11--11-|-(11)-11--11--11---|
|-------------------|---------2------|------------x---x-|--(x)--x---x---x---|
|-2-2------2-2------|---2-2-2-2------|---2-2-2-2--9---9-|--(9)--9---9---9---|
|-0-0------0-0------|---0-0-0-0------|---0-0-0-0--------|-------------------|
|
| Gtr II
| PM|      PM|          PM--|            PM----|
| S S Q.   S S Q.     E E E E E Q.     E E S S E  E.  S    +E   E.  E.  Q
|-------------------|----------------|------------------|-------------------|
|-------------------|----------------|------------------|-------------------|
|-------------------|----------------|------------5---5-|--(5)--5---5---5---|
|-------------------|---------2------|------------x---x-|--(x)--x---x---x---|
|-2-2------2-2------|---2-2-2-2------|---2-2-2-2--3---3-|--(3)--3---3---3---|
|-0-0------0-0------|---0-0-0-0------|---0-0-0-0--------|-------------------|


  E5
 4/4                 3/4
  PM|      PM|          PM--|   PM-------|   PM----|
  S S Q.   S S Q.     E E E E E E   S  S E E E S S E
|-------------------|-------------|------------------||
|-------------------|-------------|------------------||
|-------------------|-------------|------------------||
|-------------------|---------2---|------------------||
|-2-2------2-2------|---2-2-2-2-2-|-2--2-2---2-2-2-2-||
|-0-0------0-0------|---0-0-0-0-0-|-0--0-0---0-0-0-0-||
|
| PM|      PM|          PM--|                PM----|
| S S Q.   S S Q.     E E E E E E   Q.       E S S E
|-------------------|-------------|------------------||
|-------------------|-------------|------------------||
|-------------------|-------------|------------------||
|-------------------|---------2---|------------------||
|-2-2------2-2------|---2-2-2-2---|----------2-2-2-2-||
|-0-0------0-0------|---0-0-0-0---|----------0-0-0-0-||


 Outro
  H.=H                            A Little Slower Q=135
  N.C.
                                 4/4
   E.  E.  E.  E.   E. E. E. E.    W
|-----------------|-------------|-------|
|-----------------|-------------|-------|
|-11--11--11--11--|-9--9--9--9--|-17----|
|--x---x---x---x--|-x--x--x--x--|--x----|
|--9---9---9---9--|-7--7--7--7--|-15----|
|-----------------|-------------|-------|
|
|  E.  E.  E.  E.   E. E. E. E.    W
|-----------------|-------------|-------|
|-----------------|-------------|-------|
|--5---5---5---5--|-5--5--5--5--|--5----|
|--x---x---x---x--|-x--x--x--x--|--x----|
|--3---3---3---3--|-3--3--3--3--|--3----|
|-----------------|-------------|-------|


   +W            +W            +W            +W
|-------------|-------------|-------------|---------|
|-------------|-------------|-------------|---------|
|-(17)--------|-(17)--------|-(17)--------|-(17)----|
|--(x)--------|--(x)--------|--(x)--------|--(x)----|
|-(15)--------|-(15)--------|-(15)--------|-(15)----|
|-------------|-------------|-------------|---------|
|
|  +W            +W            +W            +W
|-------------|-------------|-------------|---------|
|-------------|-------------|-------------|---------|
|--(5)--------|--(5)--------|--(5)--------|--(5)----|
|--(x)--------|--(x)--------|--(x)--------|--(x)----|
|--(3)--------|--(3)--------|--(3)--------|--(3)----|
|-------------|-------------|-------------|---------|


   +W            +W            +W            +W
|-------------|-------------|-------------|---------*|
|-------------|-------------|-------------|---------*|
|-(17)--------|-(17)--------|-(17)--------|-(17)----*|
|--(x)--------|--(x)--------|--(x)--------|--(x)----*|
|-(15)--------|-(15)--------|-(15)--------|-(15)----*|
|-------------|-------------|-------------|---------*|
|
|  +W            +W            +W            +W
|-------------|-------------|-------------|---------*|
|-------------|-------------|-------------|---------*|
|--(5)--------|--(5)--------|--(5)--------|--(5)----*|
|--(x)--------|--(x)--------|--(x)--------|--(x)----*|
|--(3)--------|--(3)--------|--(3)--------|--(3)----*|
|-------------|-------------|-------------|---------*|



Duration Legend
---------------
W - whole; H - half; Q - quarter; E - 8th; S - 16th; T - 32nd; X - 64th; a - acciaccatura
+ - note tied to previous; . - note dotted; .. - note double dotted
Uncapitalized letters represent notes that are staccato (1/2 duration)
Irregular groupings are notated above the duration line
Duration letters will always appear directly above the note/fret number it represents the
duration for.  Duration letters with no fret number below them represent rests.  Multi-
bar rests are notated in the form Wxn, where n is the number of bars to rest for.  Low
melody durations appear below the staff

Tablature Legend
----------------
 h   - hammer-on
 p   - pull-off
 b   - bend
 pb  - pre-bend
 r   - bend release (if no number after the r, then release immediately)
 /\  - slide into or out of (from/to "nowhere")
 s   - legato slide
 S   - shift slide
 - natural harmonic
[n]  - artificial harmonic
n(n) - tapped harmonic
 ~   - vibrato
 tr  - trill
 T   - tap
 TP  - trem. picking
 PM  - palm muting
\n/  - tremolo bar dip; n = amount to dip
 \n  - tremolo bar down
 n/  - tremolo bar up
/n\  - tremolo bar inverted dip
 =   - hold bend; also acts as connecting device for hammers/pulls
 <> - volume swell (louder/softer)
 x   - on rhythm slash represents muted slash
 o   - on rhythm slash represents single note slash

Misc Legend
-----------
 |  - bar
||  - double bar
||o - repeat start
o|| - repeat end
*|  - double bar (ending)
 :  - bar (freetime)
 $  - Segno
 &  - Coda
Tempo markers -  = BPM(8/16=s8/s16), where s8 = swing 8ths, s16 = swing 16ths





Comments


Popular Bled tabs & chords
Get Up You Son Of A Bitch, Cause Mickey Loves Ya Bass Tabs
His First Crush Bass Tabs
I Never Met Another Gemini Bass Tabs
Antarctica Tabs
Antarctica Intro Tabs
House Of Suffering Tabs
Last American Cowboy Tabs
Porcelain Hearts And Hammers For Teeth (Intro Ver 2) Tabs
Ruth Buzzi Better Watch Her Back Tabs
Shadetree Mechanics Tabs


Song lyrics



↑ Back to top | Tablatures and chords are parodies/interpretations of the original songs. You may use it for private study, scholarship, research or language learning purposes only
© 2014 AZChords.com Contact us | Privacy policy | DMCA | Add/correct tabs | Request tabs | Top 50 tabs