» » »

Daylight Bombings Tabs (ver.1)

Artists:  A B C D E F G H I J K L M N O P Q R S T U V W X Y Z # 

Daylight Bombings Tabs (ver.1)

Bled
Rating:
4/5 (1 vote)

Hard to play? Try these video lessons and learn fast.
                (Intro)
-------------------------------------------------------------------------------
                             DAYLIGHT BOMBINGS (Intro) - The Bled
-------------------------------------------------------------------------------
Tuning: D Standard (D G C F A D)

I've got the intro/verse down, and I don't think I'm gonna be figuring out the entire
anytime soon, so I figured I'd just send in what I've got. Enjoy.

_____________________________

MAIN RIFF

The whole (at least everything in this tab, I mean) is played with a steady 8th note
so I won't bother indicating the rhythm under the measures.


D------12-0-------12-0-|------12-0-------12-0-|
A----13--------13------|----13--------13------|
F-16--------16---------|-16--------16---------|
C----------------------|----------------------|
G----------------------|----------------------|
D----------------------|----------------------|

D------12-0-------12-0-|------12-0-------12-0-|
A----13--------13------|----13--------13------|
F-14--------14---------|-14--------14---------|
C----------------------|----------------------|
G----------------------|----------------------|
D----------------------|----------------------|

NEXT PART (0:24)

D-------0----------0----|-------------0-------|
A----12---12----12---12-|----12----12---12----|
F-13---------13---------|-13----13---------13-|
C-----------------------|---------------------|
G-----------------------|---------------------|
D-----------------------|---------------------|

HIGH PART (0:29)

D----14---15-14---14----|-19-------17-------15----|
A-13---13-------13---13-|----15-13----15-13----13-|
F-----------------------|-------------------------|
C-----------------------|-------------------------|
G-----------------------|-------------------------|
D-----------------------|-------------------------|

You can also play it like this if it's more comfortable for you:

D----------15-------------|-19-------17-------15---|
A----19-------19----19----|----15-------15------13-|
F-17----17-------17----17-|-------17------17-------|
C-------------------------|------------------------|
G-------------------------|------------------------|
D-------------------------|------------------------|

Then...


D-------0----------0----|-------------0-------|
A----12---12----12---12-|----12----12---12----|
F-13---------13---------|-13----13---------13-|
C-----------------------|---------------------|
G-----------------------|---------------------|
D-----------------------|---------------------|

____

HARMONICS (0:36)


D-------<12>-|
A----<12>----|
F-<12>-------|
C------------|
G------------|
D------------|

____


That's all I've got so far. I'll try to get the chorus sometime, but don't count on it
anytime soon. If anyone decides to tab the chorus before I do, feel free to go ahead and
anything here in your tab.

I'm working on the bass part right now and I have everything, but the chorus is a little
I'll have it up as soon as I tighten the screws.

Thanks to Jim for his help, everyone for taking their time to check this out, and of
The Bled for the song.
            
Hard to play? Try these video lessons and learn fast. | Correct




comments powered by Disqus
↑ Back to top | Tablatures and chords are parodies/interpretations of the original songs. You may use it for private study, scholarship, research or language learning purposes only