» » »

Bled, Daylight Bombings Tabs (ver.2)

Artists:  A B C D E F G H I J K L M N O P Q R S T U V W X Y Z # 

Daylight Bombings Tabs (ver.2)

Bled Tabs
 Rating:
4/5 (6 votes)
Daylight Bombings lessons Tabs too difficult? Try these video lessons and learn fast
                Left Guitar

D G C F A D


4:12 – 4:47

|-----------------------------------------------------------------------------|
|------------------------0h7h8p7-0h1-~4~----------0-0-0-----------------------|
|------------------------------------------5----4-2-2s4---------------8----88-|
|-2222222-22222-22-22222----------------22-5-22-4-------22-8-7-4-2222-7-22-77-|
|-2222222-22222-22-22222----------------22-3-22-2-------22-8-7-4-2222-6-22-66-|
|-0000000-00000-00-00000----------------00---00---------00-6-5-2-0000---00----|
  ....... ..... .. .....                ..   ..         ..       ....   ..      

|-----------------------------------------------------------------------------|
|-----------------------------------------------------------------------------|
|----------------5-4--------888-----------------------------------------------|
|-22--22-22--22--5-4-5-4-22-777-----------------------------------------------|
|-22--22-22--22--3-2-5-4-22-666-~5~-------------------------------------------|
|-00--00-00--00------3-2-00---------------------------------------------------|
  ..  .. ..  ..          ..
  
|-----------------------------------------------------------------------------|
|-----------------------------------------------------------------------------|
|-----------------------------------------------------------------------------|
|-22--22-22--22--22-22--22~--22~--22--22-22--xxxxx----------------------------|
|-22--22-22--22--22-22--22~--22~--22--22-22--xxxxx----------------------------|
|-00--00-00--00--00-00--00~--00~--00--00-00--xxxxx----------------------------|
  ..  .. ..  ..  .. ..  ..   ..   ..  .. ..

|---------------------------------------------------------------------<12>----|
|-------------------------------------------------------9---------------------|
|---------------------------------------------------------------<9>-----------|
|-22-22-22222--22-22-22222--22-22-22222--22-22-22222--------9-----------------|
|-22-22-22222--22-22-22222--22-22-22222--22-22-22222--------------------------|
|-00-00-00000--00-00-00000--00-00-00000--00-00-00000--0---0---0-----0---------|
  .. .. .....  .. .. .....  .. .. .....  .. .. .....  .   .   .     .
            
Submit corrections

comments powered by Disqus
↑ Back to top | Bled Tabs for Daylight Bombings. Lyrics for acoustic guitar and electric guitar. Tablatures and chords are parodies/interpretations of the original songs. You may use it for private study, scholarship, research or language learning purposes only