» » »

Antarctica Tabs (ver.1)

Artists:  A B C D E F G H I J K L M N O P Q R S T U V W X Y Z # 

Antarctica Tabs (ver.1)

Bled
Rating:
3/5 (6 votes)

Hard to play? Try these video lessons and learn fast.
                (Intro)
e|-------------------------------------------------------------------------|
b|-------------------------------------------------------------------------|
g|------3---3-------3---3--2---2--0-------5---5b-------5b---3--2-----------|
d|----0---0---0---0---0------0------0---0---0--------0-------------4-------|
a|---------------------------------------------------------------------5s--|
d|--5-----------5---------------------4------------4-----4----------------1|

|-----------------x--------------------------------------------------------|
|-----------------3--------------------------------------------------------|
|-----0--------0--0-----5/7---7-------3-------2-3--------------------------|
|--1-----1--0-----1-----------------0--------------------------------------|
|-----------------x--------------------------------------------------------|
|-----------------1--------------5-------5-0-------------------------------|





All I got so far guys, sorry i figured it out like 5 minutes ago, i'll post
more later and when I make it better.
<3kimberly
            
Hard to play? Try these video lessons and learn fast. | Correct




comments powered by Disqus
↑ Back to top | Tablatures and chords are parodies/interpretations of the original songs. You may use it for private study, scholarship, research or language learning purposes only