>
 >
Antarctica

Antarctica Guitar Tabs

Bled - Antarctica chords, tabs, tablatures, lyrics

Guitar lessons | Add/correct | Request | Top 50 tabs Artists:  A B C D E F G H I J K L M N O P Q R S T U V W X Y Z 0-9

Antarctica Guitar Tabs – Bled

CD, Sheet music, Poster

Do you like Antarctica? Share with your friends now
Tabs
This is only Guitar I, But I still hope you enjoy!
:)


                 (INTRO)
D|------------------------------------------|
A|-----13--13--------13---------------------|
F|----------------------------16------14----|
C|---14--14--14---------14-------14---------|
G|-0-------------0h15------15-------15---15-|
D|------------------------------------------|

|--------------------------------------|
|-----15--15b-------15---13-12---------|
|-----------------------------13-------|
|---14--14--------14------------15/10--|
|-11------------11---------------------|
|--------------------------------------|

|-----------0-------0--|-10/12----------------------|
|------10-----10---10--|--------------12/10---------|
|----10--10--------10--|----------------------------|
|----------------------|---------------------9-10---|
|--8---------------10--|----------[12]-----0--------|
|----------------------|----------------------------|
   [Play 3 times, last time leave out last measure]

|----8--8-----------8--8-------------8--8-------------8----|
|----------------------------------------------------------|
|---9--9--9---9---9--9--9---9h10--10--10--10---10--10--10--|
|-------------------------------------------------9--------|
|-0---------0---0---------0----0-------------0-------------|
|----------------------------------------------------------|
                     [play 12 times]

|-8=---8=---7=---8=----7=----|
|-10=--10=--10=--10=---9=----|
|-9=---7=---7=---9=----7=----|
|------9=---9=---10=---9=----|
|----------------------7=----|
|----------------------------|


|-----------------------------------------|
|-----------------------------------------|
|----------------------2222222222222222---|
|-5-77777777-8888-777--3333333333333333---|
|-0-00000000-0000-000--0000000000000000---|
|-----------------------------------------|
                [3 times]

|----------------------0000000000000000---|
|----------------------0000000000000000---|
|----------------------2222222222222222---|
|-5-77777777-8888-777--3333333333333333---|
|-0-00000000-0000-000--0000000000000000---|
|-----------------------------------------|
                [1 time]


|------------------------|
|------------------------|
|--222222222-------------|
|--333333333--7777777----|  
|--000000000--0000000----|
|------------------------|
 
|----------------------------|
|----------------------------|
|--P.M5=---P.M5=--P.M5=------|
|--P.M3=---P.M2=--P.M2=--6=--|
|----------P.M0=---------7=--|
|------------------------0=--|
         [2 times]

|-----------------------------------------|
|-----------------------------------------|
|----------------------2222222222222222---|
|-5-77777777-8888-777--3333333333333333---|
|-0-00000000-0000-000--0000000000000000---|
|-----------------------------------------|
                [3 times]

|----------------------0000000000000000---|
|----------------------0000000000000000---|
|----------------------2222222222222222---|
|-5-77777777-8888-777--3333333333333333---|
|-0-00000000-0000-000--0000000000000000---|
|-----------------------------------------|
                [1 time]


|------------------------|
|------------------------|
|--222222222-------------|
|--333333333--7777777----|  
|--000000000--0000000----|
|------------------------|

D|------------------------------------------|
A|-----13--13--------13---------------------|
F|----------------------------16------14----|
C|---14--14--14---------14-------14---------|
G|-0-------------0h15------15-------15---15-|
D|------------------------------------------|

|--------------------------------------|
|-----15--15b-------15---13-12---------|
|-----------------------------13-------|
|---14--14--------14------------15/10--|
|-11------------11---------------------|
|--------------------------------------|

|-----------0-------0--|
|------10-----10---10--|
|----10--10--------10--|
|----------------------|
|--8---------------10--|
|----------------------|


h=Hammer
b=Bend
/=slide
[=]=strum
P.M=palm mute


Any questions feel free to send me an Email!





Comments


Popular Bled tabs & chords
Get Up You Son Of A Bitch, Cause Mickey Loves Ya Bass Tabs
Ruth Buzzi Better Watch Her Back Bass Tabs
Smoke Breaks Bass Tabs
Smoke Breaks 2 Bass Tabs
Antarctica Intro Tabs
I Never Met Another Gemini 2 Tabs
Shadetree Mechanics Tabs
Sound Of Sulfur Tabs
Spitshine Sonata Tabs
We Are The Industry Tabs


Song lyrics



↑ Back to top | Tablatures and chords are parodies/interpretations of the original songs. You may use it for private study, scholarship, research or language learning purposes only
© 2014 AZChords.com Contact us | Privacy policy | DMCA | Add/correct tabs | Request tabs | Top 50 tabs