» » »

Black Keys, Girl Is On My Mind Tabs (ver.1)

Artists:  A B C D E F G H I J K L M N O P Q R S T U V W X Y Z # 

Girl Is On My Mind Tabs (ver.1)

Black Keys Tabs
Rating:
5/5 (11 votes)
Girl Is On My Mind lessons Tabs too difficult? Try these video lessons and learn fast
                The Black Keys - Girl Is On My Mind

Standard Tuning

Intro:

e|-----------------------------------------------------------|
B|------5--------5-----------5----5--5-----------------------|
G|--4h6------4h6-6-------4h6-6----4--4----2------------------|
D|-------------------------------------------4p2-------------|
A|-----------------------------------------------------------|
E|-----------------------------------------------------------|

Immediately into:

e|---------------------------------------|
B|---------------------------------------|
G|---------------------------------------|
D|----4--x----7--x----9--x---------------|
A|----4--x----7--x----9--x---------------|
E|--2-2--x--5-5--x--7-7--x--7b(9)--5-----|

e|--------------------------------|
B|--------------------------------|
G|--------------------------------|
D|----4--x----7--x----9--x--9~----|
A|----4--x----7--x----9--x--------|
E|--2-2--x--5-5--x--7-7--x--------|


e|---------------------------------------|
B|---------------------------------------|
G|---------------------------------------|
D|----4--x----7--x----9--x---------------|      x10
A|----4--x----7--x----9--x---------------|
E|--2-2--x--5-5--x--7-7--x--7b(9)--5-----|

e|---------------------------------------|
B|---------------------------------------|
G|--6-6-6-6--4-4-4-4--6-6-6-6--9-9-9-9---|
D|--4-4-4-4--2-2-2-2--4-4-4-4--7-7-7-7---|
A|---------------------------------------|
E|---------------------------------------|

e|-----------------------------------|
B|-----------------------------------|
G|--6-6-6-6--4-4-4-4--6-6-6-6--9-9---|
D|--4-4-4-4--2-2-2-2--4-4-4-4--7-7---|
A|-----------------------------------|
E|-----------------------------------|

e|---------------------------------------|
B|---------------------------------------|
G|---------------------------------------|
D|----4--x----7--x----9--x---------------|      x3
A|----4--x----7--x----9--x---------------|
E|--2-2--x--5-5--x--7-7--x--7b(9)--5-----|

e|--------------------------------|
B|--------------------------------|
G|--------------------------------|
D|----4--x----7--x----9--x--9~----|
A|----4--x----7--x----9--x--------|
E|--2-2--x--5-5--x--7-7--x--------|

e|---------------------------------------|
B|---------------------------------------|
G|---------------------------------------|
D|----4--x----7--x----9--x---------------|      x8
A|----4--x----7--x----9--x---------------|
E|--2-2--x--5-5--x--7-7--x--7b(9)--5-----|

e|---------------------------------------|
B|---------------------------------------|
G|--6-6-6-6--4-4-4-4--6-6-6-6--9-9-9-9---|
D|--4-4-4-4--2-2-2-2--4-4-4-4--7-7-7-7---|
A|---------------------------------------|
E|---------------------------------------|

e|-----------------------------------|
B|-----------------------------------|
G|--6-6-6-6--4-4-4-4--6-6-6-6--9-9---|
D|--4-4-4-4--2-2-2-2--4-4-4-4--7-7---|
A|-----------------------------------|
E|-----------------------------------|

Here one guitar plays the chorus riff six times:

e|---------------------------------------|
B|---------------------------------------|
G|---------------------------------------|
D|----4--x----7--x----9--x---------------|      x6
A|----4--x----7--x----9--x---------------|
E|--2-2--x--5-5--x--7-7--x--7b(9)--5-----|

While another plays the solo over this riff:


e|---------------------------------------|
B|---------------------------------------|
G|-------9----9h11---9-------------------|
D|--9h11---11-----------11-10-9-7///4----|
A|---------------------------------------|
E|---------------------------------------|

e|------------------------------------|
B|------------------------------------|
G|-------9----9h11---9----------------|
D|--9h11---11-----------11-10-7-9~----|
A|------------------------------------|
E|------------------------------------|

e|-----------------------------------|
B|-----------------------------------|
G|-------9-11-----9------------------|
D|--9h11------------11-10-9-7///4----|
A|-----------------------------------|
E|-----------------------------------|

e|----------------------------------------------------|
B|----------------------------------------------------|
G|-------9----9h11-------9-11--11///17--17-17-17~-----|
D|--9h11---11---------11------------------------------|
A|----------------------------------------------------|
E|----------------------------------------------------|


After this play the chorus riff till closing:
e|---------------------------------------|
B|---------------------------------------|
G|---------------------------------------|
D|----4--x----7--x----9--x---------------|
A|----4--x----7--x----9--x---------------|
E|--2-2--x--5-5--x--7-7--x--7b(9)--5-----|

This is played softer and softer as the song gets closer to the end, and a few other 
are thrown in for effect.  Just improvise and play what sounds good.
            

comments powered by Disqus
↑ Back to top | Black Keys Tabs for Girl Is On My Mind. Lyrics for acoustic guitar and electric guitar. Tablatures and chords are parodies/interpretations of the original songs. You may use it for private study, scholarship, research or language learning purposes only