» » »

I Got Mine Tabs (ver.1)

Artists:  A B C D E F G H I J K L M N O P Q R S T U V W X Y Z # 

I Got Mine Tabs (ver.1)

Black Keys
Rating:
0/5 (0 votes)

Tabs too difficult? Try these video lessons and learn fast.
                Tunning: Standard



Key:

h  - Hammer on
p  - Pull off
/  - Slide
b  - Bend slighly
~  - Vibrato
.  - Stacato upstroke
() - Hold Note 



Intro:

e|---------------------------|
B|---------------------------|
G|-8---8-7-6---6-5-4---3--2--|
D|-9---9-8-7---7-6-5---4--3--|
A|-9---9-8-7---7-6-5---4--3--|
E|-7---7-6-5---5-4-3---2--1--|



Main Riff:

e|---------------------------|--------------------------|
B|---------------------------|--------------------------|
G|---------------------------|--------------------------|
D|-----------------5h7p5-----|--------------------------|  
A|---7p5h7---7p5h7-------7-7-|---7h5p7---7h5p7/5--------|   
E|-0-------0-----------------|-0-------0---------3h5-3~-|



Chorus Riff:

e|----------------3b~-|-----------------3b~-|
B|------------2-------|-------------2-------|
G|---1--------2-------|----1--------2-------|
D|---2--------2-------|----2--------2-------|
A|---2------0---------|----2------0---------|
E|-0---3b-------------|--0---3b-------------|
     .        .            .        .

e|----------------3b~-|---------------------|
B|------------2-------|-----------------8b~-|
G|---1--------2-------|----1----------------|
D|---2--------2-------|----2---7--5---------|
A|---2------0---------|----2---------7-(7)--|
E|-0---3b-------------|--0-----5--3--0-(0)--|
     .        .            .


Outro:

e|-----------------------------|
B|-----------------------------|
G|-8---8-7-6---6-5-4----3---2--|
D|-9---9-8-7---7-6-5----4---3--|
A|-9---9-8-7---7-6-5----4---3--|
E|-7---7-6-5---5-4-3----2---1--|
            
Tabs too difficult? Try these video lessons and learn fast.




comments powered by Disqus
↑ Back to top | Tablatures and chords are parodies/interpretations of the original songs. You may use it for private study, scholarship, research or language learning purposes only