» » »

Dead And Gone Tabs (ver.1)

Artists:  A B C D E F G H I J K L M N O P Q R S T U V W X Y Z # 

Dead And Gone Tabs (ver.1)

Black Keys
Rating:
0/5 (0 votes)
Tabs too difficult? Try these video lessons and learn fast.
                -------------------------------------------------------------------------------
                             Dead And Gone - The Black Keys
-------------------------------------------------------------------------------

This is my first tab so it might not be great

Tuning: Standard
Intro (Play the first part of the riff 4 times then play the rest twice) (Its also 
played on bass during the song)
e|---------------------------------------------------------------------------|
B|---------------------------------------------------------------------------|
G|---------------------------------------------------------------------------|
D|----------------------------------------3-3--------------------------------|
A|----------------1-1------5-5-3-5-3-5-5-----5-3--3-3-1-3-1-3-3-1-3-3-4------|
E|-3-3-1-3-1-3-3------3-1----------------------------------------------------|

e|------------------------------------------------------------------------------|
B|------------------------------------------------------------------------------|
G|------------------------------------------------------------------------------|
D|--------------3-3-------------------------------------------------------------|
A|5-5-3-5-3-5-5-----5-3---------------------------------------------------------|
E|------------------------------------------------------------------------------| x2

    The chords played throughout the song look like this
[EADGBE]
[355333]
[557765]
[335543]
[557765]
play each chord 8 times

    Solo
e|-----------------------------------------------------------------------------|
B|---6-8-6---------6-8-6-------------6/8-6--------6/8-6------------------------|
G|-7-------7-7---7-------7-7----5-7--------7-5-7---------555-------555---------|
D|-------------------------------------------------------------8-5------8-5----|
A|-----------------------------------------------------------------------------|
E|-----------------------------------------------------------------------------|

e|-----------------------------------------------------------------------------|
B|-----------------------------------------------------------------------------|
G|555--77--555--77-------------------------------------------------------------|
D|-----------------------------------------------------------------------------|
A|-----------------------------------------------------------------------------|
E|-----------------------------------------------------------------------------|




************************************

| /   slide up
| \   slide down
| h   hammer-on
| p   pull-off
| ~   vibrato
| +   harmonic
| x   Mute note
| b   Bend
| pb  Pre-bend
| br  Bend release
| pbr Pre-bend release
| brb Bend release bend

************************************
            
Tabs too difficult? Try these video lessons and learn fast.


comments powered by Disqus
↑ Back to top | Tablatures and chords are parodies/interpretations of the original songs. You may use it for private study, scholarship, research or language learning purposes only