» » »

Black Dahlia Murder, Thy Horror Cosmic Tabs (ver.3)

Artists:  A B C D E F G H I J K L M N O P Q R S T U V W X Y Z # 

Thy Horror Cosmic Tabs (ver.3)

Black Dahlia Murder Tabs
Rating:
0/5 (0 votes)
Hard to play? Try these video lessons and learn fast.
                                                THY HORROR COSMIC
                            The Black Dahlia Murder
                       (From The 2003 Album Unhallowed)



Gtr 1 - Tuning (C F Bb Eb G C)

.  - palm mute           /  - slide up to
\  - slide down to       ~  - vibrato
h  - hammer on           b  - Bend
p  - pull off            Suffixes for bend
t  - tap                 f  - full bend    h - half bend
ph - pinched harmonic    q  - quarter bend t - tap bend
*  - see comment         ^  - Hold bend    r release bend
x  - Stuccatto           ~  - vibrato bend
,  - slight palm mute    () - ghost note, sustained note
"  - tremolo note        <> - Trill


Intro
|-------------|
|-------------|
|-------------|
|-3~----------|
|-3~--5323232-|
|-1~--3101030-|
      .......

Riff 1
|--------------|
|--------------|
|--------------|
|----------"---|
|----"-"-"-5-"-|
|-12/1-0-1---0-|

Riff 2 (tremolo pick entire riff)
|-------------------------------------------------|
|-------------------------------------------------|
|-------------------------------------------------|
|-------------------------------------------------|
|----12-14-15-17-15-14-12----11-12-14-15-14-12-11-|
|-13----------------------12----------------------|

Riff 3
|--------------------------|

|--------------------------|
|--------------------------|
|-3-----3-----5-----333555-|
|-3-333-3-333-5-555-333555-|
|-1-111-1-111-3-333-111333-|
    ...   ...   ... ......

Riff 4
|-------------------------|
|----------------------ph-|
|----5--4--7--5--4--5--7~-|
|-------------------------|
|-------------------------|
|-000-00-00-00-00-00-00---|
  ... .. .. .. .. .. ..

Riff 5
|-------------------------|----------------------------|
|--------------x2---------|-----------------x2---------|
|-------------------------|----------------------------|
|-------------------------|----------------------------|
|-------12--14------14-15-|-------12--14------12h14p12-|
|-131313--13--131313------|-121212--12--121212---------|
   . . .   .   . . .         . . .   .   . . .
Riff 6
|---------------------------|
|---------------------------|
|---------------------------|
|-3~--------2-222-2-222-222-|
|-3~-532353-2-222-2-222-222-|
|-1~-310131-0-000-0-000-000-|
     ......   ...   ... ...
Riff 7
|-------------------------|------------------------|------------------------|
|-------------------------|------------------------|------------------------|
|-------------------------|------------------------|------------------------|
|7-----7------------------|3-----3-----------------|5-----5-----------------|
|7-777-7-777--10-8-7-8-7-5|3-333-3-333--7-5-3-5-3-2|5-555-5-555--8-7-5-7-5-3|
|5-555-5-555----0-0-0-0---|1-111-1-111---0-0-0-0---|3-333-3-333---0-0-0-0---|
   ...   ...    . . . .      ...   ...   . . . .      ...   ...   . . . .

Riff 7 (cont)
|-----------------------------------|
|-----------------------------------|
|-------7/10/9--------12/10-12/10/9-|
|-3-----x-x--x--2------x/x---x/x-/x-|
|-3-333-5/8-/7--2-222-10/8--10/8-/7-|
|-1-111---------0-000------0--------|
    ...           ...      .

Riff 8
|----------------------------------------------|
|----------------------------------------------|
|-----------------------------------------""""-|
|-------------------------------2---------3202-|
|---7-8--5h7p5---3-5--3h5p1---5-----3h5p3------|
|000-0-00-----000-0-00-----333-3-33------------|
... . ..     ... . ..     ... . ..

Outro
|---------------------|                 Song Order:
|---------------------|                         Intro
|---------------------|                         Riff 1 x4
|-2-----2--2--2-----2-|                         Riff 2 x2
|-2-222-2--2--2-222-2-|                         Riff 3
|-0-000-0--0--0-000-0-|                         Riff 4
    ...         ...                             Riff 3
						Riff 4
						Riff 3
						Riff 4
						Riff 3
						Riff 5 x2
						Riff 3
						Riff 4
						Riff 3
						Riff 4
						Riff 3
						Riff 4
						Riff 3
						Riff 1 x4
						Intro x3
						Riff 6
						Riff 7 x2
						Riff 8 x2
						Riff 1 x4
						Outro
            

comments powered by Disqus
↑ Back to top | Black Dahlia Murder Tabs for Thy Horror Cosmic. Lyrics for acoustic guitar and electric guitar. Tablatures and chords are parodies/interpretations of the original songs. You may use it for private study, scholarship, research or language learning purposes only