>
 >
Thy Horror Cosmic

Thy Horror Cosmic Guitar Tabs

Black Dahlia Murder - Thy Horror Cosmic chords, tabs, tablatures, lyrics

Guitar lessons | Add/correct | Request | Top 50 tabs Artists:  A B C D E F G H I J K L M N O P Q R S T U V W X Y Z 0-9

Thy Horror Cosmic Guitar Tabs – Black Dahlia Murder

CD, Sheet music, Poster

Do you like Thy Horror Cosmic? Share with your friends now
Bass TabsTabsTabs v2Tabs v3
Tuned (C, G, C, F, A, D)

/   Slide Up
\   Slide Down
h   Hammer On
p   Pull Off
b   Bend String Up
r   Release Bend
X   Mute String
.   Palm Mute
*   Stop Ring

|--------------------------------|
|--------------------------------|
|--------------------------------|
|-1-------------3-1-0-1-0---0--*-|
|-1-------------3-1-0-1-0-3-0--*-|
|-1-------------3-1-0-1-0-5-0--*-| X 1                                                              

|--------------------------------------------------|
|--------------------------------------------------|
|--------------------------------------------------|
|--------------------------------------------------|
|-------------------333333-------------------------|
|-111111111100111111------000000000000000000000000-| X 4
                                                                             

|-------------------------------------------------|
|-------------------------------------------------|
|------------------------555555-------------------|
|------555555777777888888------888888777777555555-|
|-66666-------------------------------------------|
|-------------------------------------------------|  
  
  (Riff 2)                                                                          

|--------------------------------------------------|
|--------------------------------------------------|
|--------------------------------------------------|
|-------4444445555555777777888888777777555575444444|
|-555555-------------------------------------------|
|--------------------------------------------------| X 3
  
  (Riff 2 Cont.)                                                                           

|------------------------------------------------------|
|------------------------------------------------------|
|------------------------------------------------------|
|-1-------------1-------------3------------------------|
|-1-------1-1-1-1-------1-1-1-3------3-3-3-1-1-1-3-3-3-|
|-1-------1-1-1-1-------1-1-1-3------3-3-3-1-1-1-3-3-3-| 
  
  Riff 3  . . .         . . .        . . .

|------------------------------------------------|
|------------------------------------------------|
|------------------------------------------------|
|-------7-----6-----10-----7-----6-----7-----10--|
|-0-0-0---0-0---0-0----0-0---0-0---0-0---0-0-----|
|-0-0-0---0-0---0-0----0-0---0-0---0-0---0-0-----| X 4
  
  Riff 3 (Cont.)

|------------------------------------------------------|
|------------------------------------------------------|
|------------------------------------------------------|
|-1-------------1-------------3------------------------|
|-1-------1-1-1-1-------1-1-1-3------3-3-3-1-1-1-3-3-3-|
|-1-------1-1-1-1-------1-1-1-3------3-3-3-1-1-1-3-3-3-|
  
          . . .         . . .        . . .

|---------------------------------------|
|---------------------------------------|
|---------------------------------------|
|-------5---7------7-8-------5---7--8---|
|-6-6-6---6---6-6------6-6-6---6--------|
|---------------------------------------| 
  
  Fill 

|---------------------------------------------|
|---------------------------------------------|
|---------------------------------------------|
|-------5---7----5h7p5--------5---7----5h7p5--|
|-5-5-5---5---5-5-------5-5-5---5---5-5-------|
|---------------------------------------------|
  
  Fill (Cont.)
  Go back to Riff Three (4X)
  
  End on
|--------------------------------------|
|--------------------------------------|
|--------------------------------------|
|-1------------1-----------3-\-\-\-\-\-|
|-1------1-1-1-1-----1-1-1-3-\-\-\-\-\-|
|-1------1-1-1-1-----1-1-1-3-\-\-\-\-\-| X 1
  
|--------------------------------------------------|
|--------------------------------------------------|
|--------------------------------------------------|
|--------------------------------------------------|
|-------------------333333-------------------------|
|-111111111100111111------000000000000000000000000-| X 4

|------------------------------|
|------------------------------|
|------------------------------|
|-1-------------3-1-0-1-0---0--|
|-1-------------3-1-0-1-0-3-0--|
|-1-------------3-1-0-1-0-5-0--| X 3
   

  On Fourth Time Play This
|---------------------------------------------------|
|---------------------------------------------------|
|---------------------------------------------------|
|-1-------------3-1-0-1-0---0-*---0-0-0-0-*----0-*--|
|-1-------------3-1-0-1-0-3-0-*---0-0-0-0-*----0-*--|
|-1-------------3-1-0-1-0-5-0-*---0-0-0-0-*----0-*--|

|----------------------------------------------------|
|----------------------------------------------------|
|----------------------------------------------------|
|-5-------------5------------------------------------|
|-5-------5-5-5-5-------5-5-5-8---6---5---6---5---3--|
|-5-------5-5-5-5-------5-5-5---5---5---5---5---5----|
          
          . . . .       . . .   .   .   .   .   .  
|---------------------------------------------------|
|---------------------------------------------------|
|---------------------------------------------------|
|-1-------------1-----------------------------------|
|-1-------1-1-1-1-------1-1-1-3---1---0---1---0-----|
|-1-------1-1-1-1-------1-1-1---1---1---1---1---1-3-|
          
          . . . .       . . .   .   .   .   .   .
|---------------------------------------------------|
|---------------------------------------------------|
|---------------------------------------------------|
|-3-------------3-----------------------------------|
|-3-------3-3-3-3-------3-3-3-6---5---3---5---6---5-|
|-3-------3-3-3-3-------3-3-3---3---3---3---3---3---|
          
          . . . .       . . .   .   .   .   .   .

|-----------------------------------------|
|-----------------------------------------|
|---------------5-8/7--------------10-8/7-|
|-1-------------x-x----------------x--x---|
|-1-------1-1-1-3-6/5--------0-0-0-8--6/5-|
|-1-------1-1-1--------------0-0-0--------|
          
          . . .              . . .          

|---------------------------------------------------|
|---------------------------------------------------|
|---------------------------------------------------|
|-5-------------5-----------------------------------|
|-5-------5-5-5-5-------5-5-5-8---6---5---6---5---3-|
|-5-------5-5-5-5-------5-5-5---5---5---5---5---5---|
          
          . . . .       . . .   .   .   .   .   .  

|---------------------------------------------------|
|---------------------------------------------------|
|---------------------------------------------------|
|-1-------------1-----------------------------------|
|-1-------1-1-1-1-------1-1-1-3---1---0---1---0-----|
|-1-------1-1-1-1-------1-1-1---1---1---1---1---1-3-|
          
          . . . .       . . .   .   .   .   .   .

|---------------------------------------------------|
|---------------------------------------------------|
|---------------------------------------------------|
|-3-------------3-----------------------------------|
|-3-------3-3-3-3-------3-3-3-6---5---3---5---6---5-|
|-3-------3-3-3-3-------3-3-3---3---3---3---3---3---|
          
          . . . .       . . .   .   .   .   .   .

|-----------------------------------------|
|-----------------------------------------|
|---------------5-8/7--------------10-8/7-|
|-1-------------x-x----------------x--x---|
|-1-------1-1-1-3-6/5--------0-0-0-8--6/5-|
|-1-------1-1-1--------------0-0-0--------|
          
          . . .              . . .   

|---------------------------------------------------------------------|
|---------------------------------------------------------------------|
|---------------------------------------------------------------------|
|---------------------------------------------------------------------|
|-----5-6-----3h5p3-----1-3-----1h3p1-----3-5-----3h5p3-6666555533335-|
|0-0-0-0-0-0-0-----0-0-0-0-0-0-0-----3-3-3-3-3-3-3--------------------| X 2
                                                                   
 . . . . . . .     . . . . . . .     . . . . . . .


|--------------------------------------------------|
|--------------------------------------------------|
|--------------------------------------------------|
|--------------------------------------------------|
|-------------------333333-------------------------|
|-111111111100111111------000000000000000000000000-| X 4


  End on
|-------------------------------|
|-------------------------------|
|-------------------------------|
|-0----0-0-0-0----0----0-0-0-0--|
|-0----0-0-0-0----0----0-0-0-0--|
|-0----0-0-0-0----0----0-0-0-0--|





Comments


Popular Black Dahlia Murder tabs & chords
Funeral Thirst 2 Bass Tabs
Blackest Incarnation Tabs
Closed Casket Requiem 2 Tabs
Elder Misanthropy 2 Tabs
Flies Tabs
I'm Charming Tabs
Nocturnal Intro Tabs
Oh Please Tabs
To You Contortionist Tabs
Vice Campaign Tabs


Song lyrics



↑ Back to top | Tablatures and chords are parodies/interpretations of the original songs. You may use it for private study, scholarship, research or language learning purposes only
© 2014 AZChords.com Contact us | Privacy policy | DMCA | Add/correct tabs | Request tabs | Top 50 tabs