>
 >
Everything Went Black

Everything Went Black Guitar Tabs

Black Dahlia Murder - Everything Went Black chords, tabs, tablatures, lyrics

Guitar lessons | Add/correct | Request | Top 50 tabs Artists:  A B C D E F G H I J K L M N O P Q R S T U V W X Y Z 0-9

Everything Went Black Guitar Tabs – Black Dahlia Murder

CD, Sheet music, Poster

Do you like Everything Went Black? Share with your friends now
Bass TabsBass Tabs v2TabsTabs v2
"Everything Went Black"
The Black Dahlia Murder
Nocturnal

Tuning: Standard C

Requesting tabs? Something you want from Pro? Request at:

Intro/John
-----------------------|----------|-----------------------|-----------|
-----------------------|----------|-----------------------|-----------|
-----------------------|----------|-----------------------|-----------|
-------------------5---|-5--------|-----------------------|-----------|
---------6----6----1---|-1--------|---------4----4----6---|-6---------|
-0-0-0-0-4----4----3---|-3--------|-0-0-0-0-6----6----4---|-4---------|

-----------------------|----------|-----------------------|-----------|
-----------------------|----------|-----------------------|-----------|
-----------------------|----------|-----------------------|-----------|
---------2----2----2---|-2--------|---------6----6----5---|-2\--------|
---------2----2----4---|-4--------|-----------------------|------2-2-5|
-0-0-0-0-0----0--------|----------|-0-0-0-0---------------|------0-0-3|

----------------|-----------------|----------------|-----------------|
----------------|-----------------|----------------|-----------------|
----------------|-----------------|----------------|-----------------|
-------------6--|-----------------|-------------6--|-------------8h11|
-------6--------|-9-----7-----6---|-6-----6--------|-7-----6h7-------|
-4-7-4---7-4---4|---6-6---6-6---6-|---7-4---7-4---4|---6-6-----6-----|

----------------|------------------|----------------|-----------------|
----------------|------------------|----------------|-----------------|
-4--------------|------------------|----------------|-----------------|
-------8---6---5|-----8-5----------|----------------|-----8---------3-|
----------------|---------7-4-----4|-2-2-6----2-2-5-|-2-2-6-----2-2-1-|
---4-4---4---4--|-------------6-3--|-0-0-4----0-0-3-|-0-0-------0-0---|

Intro/Brian
-----------------------|----------|---------------------|-------------|
-----------------------|----------|---------------------|-------------|
-----------------------|----------|---------------------|-------------|
-------------------5---|-5--------|---------------------|-------------|
---------6----6----1---|-1--------|---------4----4----6-|---6---------|
-0-0-0-0-4----4----3---|-3--------|-0-0-0-0-6----6----4-|---4---------|

-----------------------|----------|---------------------|-------------|
-----------------------|----------|---------------------|-------------|
-----------------------|----------|---------------------|-------------|
---------2----2----2---|-2--------|---------6----6----5-|-------------|
---------2----2----4---|-4--------|---------7----7----6-|--------2-2-5|
-0-0-0-0---------------|----------|-0-0-0-0-------------|---6\---0-0-3|

----------------|-----------------|-----------------|----------------|
----------------|-----------------|-----------------|----------------|
----------------|-----------------|-----------------|----------------|
----------------|-----------------|-------------6---|-------------5-8|
-6--------------|-9-----7-----6---|-6-----6---------|-7--------------|
-4--------------|---6-6---6-6---6-|---7-4---7-4---4-|---6-6-6-9-6----|

----------------|------------------|----------------|----------------|
----------------|------------------|----------------|----------------|
-4--------------|------------------|----------------|-----8--------3-|
-------8---6---5|-----8-5----------|-----6--------5-|-----8--------3-|
----------------|---------7-4------|-2-2-6----2-2-5-|-2-2------2-2---|
---4-4---4---4--|-------------6-3-6|-0-0------0-0---|-0-0------0-0---|

Verse1/John
----------------|----------------|----------------|----------------|
----------------|----------------|----------------|----------------|
-------------4--|----------------|----------------|----------------|
-----------6----|-8-----8---8-5--|-6--------------|----------------|
-------6--------|---7-7---7-----7|-------6-----7--|-4-----2---1-2--|
-4-7-4---7-----4|----------------|---4-4---4-4---4|---0-0---0-----3|

----------------|----------------|----------------|----------------|
----------------|----------------|----------------|----------------|
-------------4--|----------------|----------------|----------------|
-----------6----|-8-----8---8-5--|-6-----5-------6|-5--------------|
-------6--------|---7-7---7-----7|---7-7---6-6-7--|---7-4---7---4--|
-4-7-4---7-----4|----------------|----------------|-------6---6----|

----------------|----------------|----------------|----------------|
----------------|----------------|----------------|----------------|
----------------|----------------|----------------|----------------|
----------------|----------------|-----------5---5|-6-----------6--|
-6-------------4|-6-------------4|-6-------6---6--|---6-------6---6|
---7-4-7-0-3-6--|---7-4-7-0-3-6--|---7-6-7--------|-----7-6-7------|

----------------|----------------|----------------|----------------|
----------------|----------------|----------------|----------------|
----------------|----------------|----------------|----------------|
-6--------------|-6-------6---5--|-2---------2-2--|-5--------------|
---6-----7-5----|---6-------7---6|-x---------x-x--|-x--------------|
-----7-6---3----|-----7-6--------|-0---------0-0--|-3--------------|

----------------|----------------|----------------|----------------|
----------------|----------------|----------------|----------------|
-------------4--|----------------|----------------|----------------|
-----------6----|-8-----8---8-5--|-6--------------|----------------|
-------6--------|---7-7---7-----7|-------6-----7--|-4-----2---1-2--|
-4-7-4---7-----4|----------------|---4-4---4-4---4|---0-0---0-----3|

----------------|----------------|-------------------|----------------|
----------------|----------------|-------------------|----------------|
-------------4--|----------------|-------------------|-6p4---6-----8--|
-----------6----|-8-----8---8-5--|-8-----9-----11----|----------------|
-------6--------|---7-7---7-----7|---7-7---7-7----7-7|-----6---6-6---6|
-4-7-4---7-----4|----------------|-------------------|----------------|

----------------|----------------|----------------|----------------|
----------------|----------------|----------------|----------------|
----------------|----------------|----------------|-------4--------|
----------------|----------------|-------6--------|-6-8------------|
-9-------6---6-9|-9-------6---6-9|-6--------------|----------------|
---7-0-0---7----|---7-0-0---7----|---7-4---4-4-444|-----4---4-4-444|

----------------|---------------|----------------|----------------|
----------------|---------------|----------------|----------------|
----------------|---------------|----------------|----------------|
----------------|---------------|-----------6-5--|----------------|
-9-------6---6-9|9-------6---6-9|-7-664-6-7-----4|---------13\----|
---7-0-0---7----|--7-0-0---7----|----------------|---------11\----|

Verse1/Brian
----------------|----------------|----------------|----------------|
----------------|----------------|----------------|----------------|
-------------4--|----------------|----------------|----------------|
-----------6----|-8-----8---8-5--|-6--------------|----------------|
-------6--------|---4-4---4-----4|-------6-----7--|-4-----2---1-2--|
-4-7-4---7-----4|----------------|---4-4---4-4---4|---0-0---0-----3|

----------------|----------------|----------------|----------------|
----------------|----------------|----------------|----------------|
-------------4--|----------------|----------------|----------------|
-----------6----|-8-----8---8-5--|----------------|-------------2--|
-------6--------|---4-4---4-----4|-6-----4-----4-6|-4-------1------|
-4-7-4---7-----4|----------------|---4-4---3-3----|---6-3-0---3----|

----------------|----------------|----------------|----------------|
----------------|----------------|----------------|----------------|
----------------|----------------|----------------|-------------9-6|
-6-------------5|-6-------------5|-6-------5-8-5-8|-9-6-------6----|
---6---6---4-7--|---6---6---4-7--|---6---6--------|-----6---6------|
-----7---6------|-----7---6------|-----7----------|-------7--------|

----------------|------------------|--------------|----------------|
----------------|------------------|--------------|----------------|
----------------|------------------|--------------|----------------|
-11-8------8-5--|-11-8------9-6-8-5|-5--------5-5-|-8--------------|
------10-7---5--|------10-7--------|-x--------x-x-|-x--------------|
----------------|------------------|-3--------3-3-|-6--------------|

----------------|----------------|----------------|----------------|
----------------|----------------|----------------|----------------|
-------------4--|----------------|----------------|----------------|
-----------6----|-8-----8---8-5--|-6--------------|----------------|
-------6--------|---4-4---4-----4|-------6-----7--|-4-----2---1-2--|
-4-7-4---7-----4|----------------|---4-4---4-4---4|---0-0---0-----3|

----------------|----------------|------------------|----------------|
----------------|----------------|------------------|----------------|
-------------4--|----------------|------------------|----------------|
-----------6----|-8-----8---8-5--|---------------8--|-8p6---8-----9--|
-------6--------|---4-4---4-----4|-10-7-7-11-7-7---7|-----6---6-6---6|
-4-7-4---7-----4|----------------|------------------|----------------|

----------------|----------------|----------------|----------------|
----------------|----------------|----------------|----------------|
----------------|----------------|----------------|----------------|
----------------|----------------|-------6--------|-6-8---6--------|
-6-------2---4-6|-6-------2---4-6|-6--------------|----------------|
---4-0-0---4----|---4-0-0---4----|---7-4---4-4-444|-----4---4-4-444|

----------------|----------------|----------------|----------------|
----------------|----------------|----------------|----------------|
----------------|----------------|----------------|----------------|
----------------|----------------|----------------|----------------|
-6-------2---4-6|-6-------2---4-6|-----------7-6--|---------13\----|
---4-0-0---4----|---4-0-0---4----|-9-776-7-9-----6|---------11\----|

Chorus1/John
----------------|----------------|----------------|-----------------|
----------------|----------------|----------------|-----------------|
----------------|----------------|----------------|-----------------|
----------------|----------------|----------------|-----------------|
-------6---7p6--|-------4---6-4--|-------6---7-6--|-------/6---4---2|
-4---4---4-----4|-6---6---6-----6|-7---7---7-----7|-0---0----0---0--|

----------------|----------------|-----------------|----------------|
----------------|----------------|-----------------|----------------|
----------------|----------------|-----------------|----------------|
----------------|----------------|-----------------|-------5---2---5|
-------6---7p6--|-------6---4---6|-------/6---4---6|----------------|
-4---4---4-----4|-3---3---3---3--|-0---0----0---0--|-3---3---3---3--|

----------------|----------------|----------------|----------------|
----------------|----------------|----------------|----------------|
----------------|----------------|----------------|----------------|
-6-------------6|-8--------------|----------------|----------------|
-x-------------x|-x--------------|----------------|----------------|
-4-------------4|-6--------------|-7-0-6-0-4-0-6-0|-7-0-6-0-4-0-7-0|

----------------|----------------|---------------|
----------------|----------------|---------------|
----------------|----------------|---------------|
-8\-------------|-3\-------------|---------------|
-6\---5---------|-1\-------------|---------------|
------3---------|----0-000-000-00|0-000-000-0-4-0|

Chorus1/Brian
----------------|----------------|----------------|-----------------|
----------------|----------------|----------------|-----------------|
----------------|----------------|----------------|-----------------|
----------------|----------------|----------------|-----------------|
-------6---7p6--|-------4---6-4--|-------6---7-6--|-------/6---4---2|
-4---4---4-----4|-6---6---6-----6|-7---7---7-----7|-0---0----0---0--|

----------------|----------------|-----------------|----------------|
----------------|----------------|-----------------|----------------|
----------------|----------------|-----------------|----------------|
----------------|----------------|-----------------|----------------|
-------6---7p6--|-------6---4---6|-------/6---4---6|-------6---4---6|
-4---4---4-----4|-3---3---3---3--|-0---0----0---0--|-3---3---3---3--|

----------------|----------------|----------------|----------------|
----------------|----------------|----------------|----------------|
----------------|----------------|----------------|----------------|
-6-------------6|-8--------------|----------------|----------------|
-x-------------x|-x--------------|-6---4---2---4--|-6---4---2---6--|
-4-------------4|-6--------------|---0---0---0---0|---0---0---0---0|

----------------|----------------|---------------|
----------------|----------------|---------------|
----------------|----------------|---------------|
-8\-------------|-3\-------------|---------------|
-6\---5---------|-1\-------------|---------------|
------3---------|----0-000-000-00|0-000-000-0-2-0|

Verse2/John
----------------|----------------|----------------|-----------------|
----------------|----------------|----------------|-----------------|
----------------|----------------|----------------|-----------------|
----------------|----------------|-------------6--|--------------6p5|
-6-----6-----6--|---------4-7-4-1|-6-----6--------|-7-----6h7-10----|
---7-4---7-4---7|-0-6-0-6--------|---7-4---7-4---4|---6-6-----------|

----------------|----------------|----------------|------------------|
----------------|----------------|----------------|------------------|
-4--------------|-------------8-9|-9-6-9-6-9-6----|------------------|
-------8---6---5|---8-5----------|-------------8-6|-5----------------|
----------------|-------7-6-4----|----------------|---7-6-7-4-6-7-6-4|
---4-4---4---4--|----------------|----------------|------------------|

----------------|----------------|----------------|----------------|
----------------|----------------|----------------|----------------|
----------------|----------------|----------------|----------------|
----------------|----------------|----------------|----------------|
--------77777777|6666666644444444|66666666--------|----------------|
00000000--------|----------------|--------77777777|4444444477777777|

----------------|----------------|----------------|----------------|
----------------|----------------|----------------|----------------|
----------------|----------------|----------------|----------------|
----------------|----------------|----------------|----------------|
--------77777777|6666666644444444|66666666--------|--------66666666|
00000000--------|----------------|--------77777777|44444444--------|

----------------|----------------|----------------|----------------|
----------------|----------------|----------------|----------------|
----------------|----------------|----------------|----------------|
----------------|----------------|----------------|----------------|
7777777777777777|7777777744444444|6666666666666666|----------------|
----------------|----------------|----------------|7777777766666666|

----------------|----------------|----------------|----------------|
----------------|----------------|----------------|----------------|
----------------|----------------|----------------|----------------|
----------------|----------------|----------------|----------------|
----------------|----666677776666|1111111111111111|1111111111111111|
4444444444444444|4444------------|----------------|----------------|

Verse 2/Brian
----------------|----------------|---------------|-----------------|
----------------|----------------|---------------|-----------------|
----------------|----------------|---------------|-----------------|
----------------|----------------|------------6--|-----------------|
-6--------------|---------1-4-1--|-6-----6-------|-7-----6h7-10-7p6|
-4--------------|-0-3-0-3-------3|---7-4---7-4--4|---6-6-----------|

----------------|----------------|----------------|----------------|
----------------|----------------|----------------|----------------|
----------------|----------------|----------------|----------------|
-6-----8---6---5|---8-5----------|-------------8-6|-5--------------|
----------------|-------7-6-4-6-7|-7-4-7-4-7-4----|---7-6-4-6-7-6-4|
---4-4---4---4--|----------------|----------------|----------------|

----------------|----------------|----------------|----------------|
----------------|----------------|----------------|----------------|
----------------|----------------|----------------|----------------|
----------------|----------------|----------------|----------------|
----------------|----------------|----------------|----------------|
0000000000000000|0000000033333333|4444444477777777|4444777766669999|

----------------|----------------|----------------|----------------|
----------------|----------------|----------------|----------------|
----------------|----------------|----------------|----------------|
----------------|----------------|----------------|----------------|
----------------|----------------|----------------|----------------|
0000000000000000|0000000033333333|4444777766669999|7777111166669999|

----------------|----------------|----------------|----------------|
----------------|----------------|----------------|----------------|
----------------|----------------|----------------|----------------|
----------------|----------------|----------------|----------------|
----------------|----------------|----------------|----------------|
9999999999999999|9999999966666666|7777777777777777|4444444433333333|

----------------|----------------|----------------|----------------|
----------------|----------------|----------------|----------------|
----------------|----------------|----------------|----------------|
----------------|----------------|----------------|----------------|
----------------|--------4444----|----------------|----------------|
0000000000000000|00007777----7777|3333333333333333|3333333333333333|

Solo/John (With Wah)
(Hammer and press this part)
--------------------------------|--------------------------------|
16171617161716171617161716171617|20202020202020202121212121212121|
--------------------------------|--------------------------------|
--------------------------------|--------------------------------|
--------------------------------|--------------------------------|
--------------------------------|--------------------------------|

(again, h and p)
16181618161816181618161816181618|19^-----------------------------|
--------------------------------|--------------------------------|
--------------------------------|--------------------------------|
--------------------------------|--------------------------------|
--------------------------------|--------------------------------|
--------------------------------|--------------------------------|

------------------------------|------------------------------------|
-17-16-14-16-14---------------|------------------------------------|
----------------16-15-13-15-16|-15-13-12-13-12----12---------------|
------------------------------|----------------14----14-13-11-13-11|
------------------------------|------------------------------------|
------------------------------|------------------------------------|

-----------------------------|------------------------------------|
-----------------------------|------------------------------------|
-----------------------------|------------------------------------|
-9-11-9-8-9-8----8-----------|------------------------------------|
--------------11---11-10-7-10|-6^---------------------------------|
-----------------------------|------------------------------------|

--------------------------------|----------------------------|
17171717141414141616161612121212|1414141411111111121212129999|
--------------------------------|----------------------------|
--------------------------------|----------------------------|
--------------------------------|----------------------------|
--------------------------------|----------------------------|

-----------------|-------------|-------------------|-----------------|
-11-9-898---8----|-------------|-------------------|-----8-9-11-9-8-9|
----------9---9-8|-9-8---------|-------------------|-8-9-------------|
-----------------|-----11-9-8-9|-11----------8h9h11|-----------------|
-----------------|-------------|-------------------|-----------------|
-----------------|-------------|-------------------|-----------------|

-------------------------------|-------------------|-9-^-------------|
1112111211121112111211121112119|-11^------9--------|-12^-------------|
-------------------------------|-------------------|-----------------|
-------------------------------|-------------------|-----------------|
-------------------------------|-------------------|-----------------|
-------------------------------|-------------------|-----------------|

---------------------|--------------|--------------|---------------|---------
-14--14--16--16171614|-16--------17-|-16--------16/|21----------20-|20-------
---------------------|--------------|--------------|---------------|---------
---------------------|--------------|--------------|---------------|---------
---------------------|--------------|--------------|---------------|---------
---------------------|--------------|--------------|---------------|---------

(Fun Triplet Part)
------------------------------------|------------------------------------|
-21-20-17-20-17----17---------------|------------------------------------|
----------------20----20-18-20-18-16|-18-16----16------------------------|
------------------------------------|-------20----20-18-17-18-20-18-17-14|
------------------------------------|------------------------------------|
------------------------------------|------------------------------------|

------------------------------------|------------------------------------|
------------------------------------|------------------------------------|
------------------------------------|-------------------12-13-15-13-12---|
-17-14-13-14-13----13---------------|----------11-13-14----------------14|
----------------16----16-14-16-14-13|-11-13-14---------------------------|
------------------------------------|------------------------------------|

------------------------------------|------------------------------------|
------------------------------------|-12-------------------------12-14-16|
-13-12----12----------------12-13-15|----15-13-15-13-12-12-13-15---------|
-------14----14-13-11-13-14---------|------------------------------------|
------------------------------------|------------------------------------|
------------------------------------|------------------------------------|

-11-15-16-15-12-16-18---------------|-19----18---------20^---------------|
------------------------------------|------------16----------------------|
------------------------------------|------------------------------------|
------------------------------------|------------------------------------|
------------------------------------|------------------------------------|
------------------------------------|------------------------------------|

Solo Riff/Brian
----------------|----------------|-----------------|----------------|
----------------|----------------|-----------------|----------------|
----------------|----------------|-----------------|----------------|
-6-----------8--|-6-----------8--|-9-----6---------|-9-----6--------|
-------6--------|-------6--------|--------------7--|-------------7--|
---4-4---4-4---4|---4-4---4-4---4|---0-0---0-0----0|---0-0---0-0---0|

----------------|----------------|-----------------|----------------|
----------------|----------------|-----------------|----------------|
----------------|----------------|-----------------|----------------|
-6-----------8--|-6-----------8--|-9-----6---------|-9-----6--------|
-------6--------|-------6--------|--------------7--|-------------7--|
---4-4---4-4---4|---4-4---4-4---4|---0-0---0-0----0|---0-0---0-0---0|

-----------------|----------------|-----------------|------------------|
-----------------|----------------|-----------------|------------------|
-----------------|----------------|-----------------|------------------|
-----------------|----------------|-----------------|------------------|
-7-4-------------|----------------|-6---------------|-11-7---10-6---6-4|
-----0-11-7-0-9-6|-0-6-3-0-4-3-0-3|-4---------------|------0------0----|

-----------------|----------------|-----------------|-----------------|
-----------------|----------------|-----------------|-----------------|
-----------------|----------------|-----------------|-----------------|
-----------------|----------------|-----------------|-----------------|
-6-4---7-4---10-7|-6--------------|-5---------------|-----5----5----2-|
-----0-----0-----|-4--------------|-3---------------|-----3----3----0-|

----------------|----------------|-----------------|------------------|
----------------|----------------|-----------------|------------------|
----------------|----------------|-----------------|------------------|
----------------|----------------|-8---------------|------------------|
-6--------------|----------------|-6---------------|----9-9-9-----8---|
-4--------------|-7-6-3-6-7-4-6-4|-6---------------|----7-7-7-----6---|

----------------|----------------|-----------------|------------------|
----------------|----------------|-----------------|------------------|
----------------|----------------|-----------------|------------------|
----------------|----------------|-6---------------|------------------|
-6--------------|----------------|-4---------------|------------6-----|
-4--------------|-7-6-4-6-7-4-6-4|-----------------|-6----7\----4-----|

----------------|----------------|----------------|
----------------|----------------|----------------|
----------------|----------------|----------------|
----------------|----------------|----------------|
--------2-------|---------4------|---------4-----7|
-7------0-------|-0-3-6-3---6-3-0|-3-6-3-0---6-3--|

Verse3/John
----------------|----------------|----------------|----------------|
----------------|----------------|----------------|----------------|
----------------|----------------|----------------|----------------|
----------------|----------------|----------------|----------------|
-6-----------7-6|-5--------------|-5--------------|-------------6-8|
-4-----------5-4|-3--------------|-3--------------|-------------4-6|

----------------|----------------|----------------|----------------|
----------------|----------------|----------------|----------------|
----------------|----------------|----------------|----------------|
----------------|----------------|-2-----------2--|----------------|
-6-----------7-6|-1--------------|---6-4-2-4-6---1|-6-4-2-1-2-4-6-1|
-4-----------5-4|-3--------------|----------------|----------------|

----------------|----------------|----------------|----------------|
----------------|----------------|----------------|----------------|
----------------|----------------|----------------|----------------|
----------------|----------------|----------------|----------------|
-------------7-6|-5--------------|-----4---4------|-7-----------6--|
-7-4-7-4-7-4----|---7-6-4-6-7-6-4|-3-6---3---6-3-0|---6-3-0-3-6---6|

----------------|-----------------|----------------|----------------|
----------------|-----------------|----------------|----------------|
----------------|-----------------|----------------|----------------|
----------------|-----------------|-2-----------2--|----------------|
-------------7-6|-10-7------------|---6-4-2-4-6---1|-6-4-2-1-2-4-6-1|
-7-4-7-4-7-4----|------9-7-6-7-9-6|----------------|----------------|

----------------|----------------|----------------|----------------|
----------------|----------------|----------------|----------------|
----------------|----------------|----------------|----------------|
----------------|----------------|----------------|----------------|
-------------7-6|-5--------------|-----4---4------|-7-----------6--|
-7-4-7-4-7-4----|---7-6-4-6-7-6-4|-3-6---3---6-3-0|---6-3-0-3-6---6|

----------------|-----------------|----------------|----------------|
----------------|-----------------|----------------|----------------|
----------------|-----------------|----------------|----------------|
----------------|-----------------|-2-----------2--|----------------|
-------------7-6|-10-7------------|---6-4-2-4-6---1|-6-4-2-1-2-4-6-1|
-7-4-7-4-7-4----|------9-7-6-7-9-6|----------------|----------------|

----------------|----------------|----------------|----------------|
----------------|----------------|----------------|----------------|
----------------|----------------|----------------|-------4--------|
----------------|----------------|-------6--------|-6-8------------|
-9-------6---6-9|-9-------6---6-9|-6--------------|----------------|
---7-0-0---7----|---7-0-0---7----|---7-4---4-4-444|-----4---4-4-444|

----------------|---------------|----------------|--------------|
----------------|---------------|----------------|--------------|
----------------|---------------|----------------|--------------|
----------------|---------------|-----------6-5--|--------------|
-9-------6---6-9|9-------6---6-9|-7-664-6-7-----4|-4---4---464-1|
---7-0-0---7----|--7-0-0---7----|----------------|---6---6------|

Verse3/Brian
----------------|----------------|----------------|----------------|
----------------|----------------|----------------|----------------|
----------------|----------------|----------------|----------------|
----------------|----------------|----------------|----------------|
-------------7-6|-5--------------|-----4---4------|-7-----------6--|
-7-4-7-4-7-4----|---7-6-4-6-7-6-4|-3-6---3---6-3-0|---6-3-0-3-6---6|

----------------|----------------|----------------|----------------|
----------------|----------------|----------------|----------------|
----------------|----------------|----------------|----------------|
-------------6-5|-8-5-----------5|----------------|----------------|
----------------|-----7-6-4-6-7--|-4-----------4--|----------------|
-7-4-7-4-7-4----|----------------|---7-6-4-6-7---6|-7-6-4-3-4-6-7-3|

----------------|----------------|----------------|----------------|
----------------|----------------|----------------|----------------|
----------------|----------------|----------------|----------------|
----------------|----------------|----------------|----------------|
-------------7-6|-5--------------|-----4---4------|-7-----------6--|
-7-4-7-4-7-4----|---7-6-4-6-7-6-4|-3-6---3---6-3-0|---6-3-0-3-6---6|

----------------|----------------|----------------|----------------|
----------------|----------------|----------------|----------------|
----------------|----------------|----------------|----------------|
-------------6-5|-8-5-----------5|----------------|----------------|
----------------|-----7-6-4-6-7--|-4-----------4--|----------------|
-7-4-7-4-7-4----|----------------|---7-6-4-6-7---6|-7-6-4-3-4-6-7-3|

----------------|----------------|----------------|----------------|
----------------|----------------|----------------|----------------|
----------------|----------------|----------------|----------------|
----------------|----------------|----------------|----------------|
-------------7-6|-5--------------|-----4---4------|-7-----------6--|
-7-4-7-4-7-4----|---7-6-4-6-7-6-4|-3-6---3---6-3-0|---6-3-0-3-6---6|

----------------|----------------|----------------|----------------|
----------------|----------------|----------------|----------------|
----------------|----------------|----------------|----------------|
-------------6-5|-8-5-----------5|----------------|----------------|
----------------|-----7-6-4-6-7--|-4-----------4--|----------------|
-7-4-7-4-7-4----|----------------|---7-6-4-6-7---6|-7-6-4-3-4-6-7-3|

----------------|----------------|----------------|----------------|
----------------|----------------|----------------|----------------|
----------------|----------------|----------------|----------------|
----------------|----------------|-------6--------|-6-8---6--------|
-6-------2---4-6|-6-------2---4-6|-6--------------|----------------|
---4-0-0---4----|---4-0-0---4----|---7-4---4-4-444|-----4---4-4-444|

----------------|----------------|----------------|--------------|
----------------|----------------|----------------|--------------|
----------------|----------------|----------------|--------------|
----------------|----------------|----------------|--------------|
-6-------2---4-6|-6-------2---4-6|-----------7-6--|--------------|
---4-0-0---4----|---4-0-0---4----|-9-776-7-9-----6|-6-3-6-3-676-3|

Chorus1/John
----------------|----------------|----------------|-----------------|
----------------|----------------|----------------|-----------------|
----------------|----------------|----------------|-----------------|
----------------|----------------|----------------|-----------------|
-------6---7p6--|-------4---6-4--|-------6---7-6--|-------/6---4---2|
-4---4---4-----4|-6---6---6-----6|-7---7---7-----7|-0---0----0---0--|

----------------|----------------|-----------------|----------------|
----------------|----------------|-----------------|----------------|
----------------|----------------|-----------------|----------------|
----------------|----------------|-----------------|-------5---2---5|
-------6---7p6--|-------6---4---6|-------/6---4---6|----------------|
-4---4---4-----4|-3---3---3---3--|-0---0----0---0--|-3---3---3---3--|

----------------|----------------|----------------|----------------|
----------------|----------------|----------------|----------------|
----------------|----------------|----------------|----------------|
-6-------------6|-8--------------|----------------|----------------|
-x-------------x|-x--------------|----------------|----------------|
-4-------------4|-6--------------|-7-0-6-0-4-0-6-0|-7-0-6-0-4-0-7-0|

----------------|----------------|---------------|--------------|
----------------|----------------|---------------|--------------|
----------------|----------------|---------------|--------------|
-8\-------------|-3\-------------|---------------|--------------|
-6\---5---------|-1\-------------|---------------|-6------------|
------3---------|----0-000-000-00|0-000-000-0-2-0|-4------------|

----------------|----------------|
----------------|----------------|
----------------|----------------|
----------------|----------------|
---6---6--------|-6--------------|
-4---4---0-7-6-0|-4--------------|

Chorus1/Brian
----------------|----------------|----------------|-----------------|
----------------|----------------|----------------|-----------------|
----------------|----------------|----------------|-----------------|
----------------|----------------|----------------|-----------------|
-------6---7p6--|-------4---6-4--|-------6---7-6--|-------/6---4---2|
-4---4---4-----4|-6---6---6-----6|-7---7---7-----7|-0---0----0---0--|

----------------|----------------|-----------------|----------------|
----------------|----------------|-----------------|----------------|
----------------|----------------|-----------------|----------------|
----------------|----------------|-----------------|----------------|
-------6---7p6--|-------6---4---6|-------/6---4---6|-------6---4---6|
-4---4---4-----4|-3---3---3---3--|-0---0----0---0--|-3---3---3---3--|

----------------|----------------|----------------|----------------|
----------------|----------------|----------------|----------------|
----------------|----------------|----------------|----------------|
-6-------------6|-8--------------|----------------|----------------|
-x-------------x|-x--------------|-6---4---2---4--|-6---4---2---6--|
-4-------------4|-6--------------|---0---0---0---0|---0---0---0---0|

----------------|----------------|---------------|---------------|
----------------|----------------|---------------|---------------|
----------------|----------------|---------------|---------------|
-8\-------------|-3\-------------|---------------|---------------|
-6\---5---------|-1\-------------|---------------|-6-------------|
------3---------|----0-000-000-00|0-000-000-0-4-0|-4-------------|

----------------|----------------|
----------------|----------------|
----------------|----------------|
----------------|----------------|
-----------6-4--|-6--------------|
-7-4-7-4-7-----6|-4--------------|





Comments


Popular Black Dahlia Murder tabs & chords
Deathmask Divine Bass Tabs
When The Last Grave Has Emptied Bass Tabs
A Vulgar Picture Intro Tabs
All My Best Friends Are Bullets 1 Tabs
Closed Casket Requiem 2 Tabs
Denounced Disgraced Tabs
Elder Misanthropy 3 Tabs
Everything Went Black 2 Tabs
Vice Campaign Tabs
Virally Yours Tabs


Song lyrics



↑ Back to top | Tablatures and chords are parodies/interpretations of the original songs. You may use it for private study, scholarship, research or language learning purposes only
© 2014 AZChords.com Contact us | Privacy policy | DMCA | Add/correct tabs | Request tabs | Top 50 tabs