>
 >
Everything Went Black

Everything Went Black Bass Tabs

Black Dahlia Murder - Everything Went Black chords, tabs, tablatures, lyrics

Guitar lessons | Add/correct | Request | Top 50 tabs Artists:  A B C D E F G H I J K L M N O P Q R S T U V W X Y Z 0-9

Everything Went Black Bass Tabs – Black Dahlia Murder

CD, Sheet music, Poster

Do you like Everything Went Black? Share with your friends now
Bass TabsBass Tabs v2TabsTabs v2

 Intro
D#|----------------|----------------|----------------|----------------|
A#|----------------|----------------|----------------|----------------|
F |----------------|----------------|----------------|----------------|
C |-000-4---4---3--|-3~-------------|-000-6---6---4--|-4~-------------|

D#|----------------|----------------|----------------|----------------|
A#|----------------|----------------|-----6---6---5--|----------------|
F |-----2---2---4--|-4~-------------|----------------|-7\-------------|
C |-000------------|----------------|-000------------|-----------0-0-3|

D#|----------------|----------------|----------------|-----------------|
A#|----------------|----------------|-------------6--|-------------8h11|
F |----------------|-9-----7-----6--|-6-----6--------|-7-----6h7-------|
C |-4--------------|---6-6---6-6---6|---7-4---7-4---4|---6-6-----6-----|

D#|-4--------------|----------------|----------------|----------------|
A#|-------8---6---5|---8-5----------|----------------|----------------|
F |----------------|-------7-4-----4|----------------|-----6---------1|
C |---4-4---4---4--|-----------6-3--|-0-0-4----0-0-3-|-0-0-------0-0--|


 Verse 1
D#|-------------4--|----------------|----------------|----------------|
A#|-----------6----|-8-----8---8-5--|-6--------------|----------------|
F |-------6--------|---7-7---7-----7|-------6-----7--|-4-----2---1-2--|
C |-4-7-4---7-----4|----------------|---4-4---4-4---4|---0-0---0-----3|

D#|-------------4--|----------------|----------------|----------------|
A#|-----------6----|-8-----8---8-5--|-6-----5-------6|-5--------------|
F |-------6--------|---7-7---7-----7|---7-7---6-6-7--|---7-4---7---4--|
C |-4-7-4---7-----4|----------------|----------------|-------6---6----|

D#|----------------|----------------|----------------|----------------|
A#|----------------|----------------|-----------5---5|-6-----------6--|
F |-6-------------4|-6-------------4|-6-------6---6--|---6-------6---6|
C |---7-4-7-0-3-6--|---7-4-7-0-3-6--|---7-6-7--------|-----7-6-7------|

D#|----------------|----------------|----------------|----------------|
A#|-6--------------|-6-------6---5--|----------------|----------------|
F |---6-----7------|---6-------7---6|----------------|----------------|
C |-----7-6---3----|-----7-6--------|-0~--------0-0--|-3--------------|

D#|-------------4--|----------------|----------------|----------------|
A#|-----------6----|-8-----8---8-5--|-6--------------|----------------|
F |-------6--------|---7-7---7-----7|-------6-----7--|-4-----2---1-2--|
C |-4-7-4---7-----4|----------------|---4-4---4-4---4|---0-0---0-----3|

D#|-------------4--|----------------|------------------|----------------|
A#|-----------6----|-8-----8---8-5--|---------------8--|-8p6---8-----9--|
F |-------6--------|---7-7---7-----7|-10-7-7-11-7-7---7|-----6---6-6---6|
C |-4-7-4---7-----4|----------------|------------------|----------------|

D#|----------------|----------------|----------------|----------------|
A#|----------------|----------------|-------6--------|-6-8---6--------|
F |-6-------2---4-6|-6-------2---4-6|-6--------------|----------------|
C |---4-0-0---4----|---4-0-0---4----|---7-4---4-4-444|-----4---4-4-444|

D#|----------------|----------------|----------------|----------------|
A#|----------------|----------------|----------------|----------------|
F |-6-------2---4-6|-6-------2---4-6|-----------7-6--|----------------|
C |---4-0-0---4----|---4-0-0---4----|-9-776-7-9-----6|---------11\----|


 Chorus
D#|----------------|----------------|----------------|-----------------|
A#|----------------|----------------|----------------|-----------------|
F |-------6---7p6--|-------4---6p4--|-------6---7p6--|--------6---4---2|
C |-4---4---4-----4|-6---6---6-----6|-7---7---7-----7|-0---0----0---0--|

D#|----------------|----------------|-----------------|----------------|
A#|----------------|----------------|-----------------|----------------|
F |-------6---7p6--|-------6---4---6|--------6---4---6|-------6---4---6|
C |-4---4---4-----4|-3---3---3---3--|-0---0----0---0--|-3---3---3---3--|

D#|----------------|----------------|----------------|----------------|
A#|----------------|----------------|----------------|----------------|
F |----------------|----------------|-6---4---2---4--|-6---4---2---4--|
C |-4~-------------|-6~-------------|---0---0---0---0|---0---0---0---0|

D#|----------------|----------------|---------------|
A#|----------------|----------------|---------------|
F |-6\-------------|-1--------------|---------------|
C |------3~--------|----0-000-000-00|0-000-000-0-4-0|

 
 Verse 2
D#|----------------|----------------|---------------|-----------------|
A#|----------------|----------------|------------6--|-----------------|
F |----------------|---------1-4-1--|-6-----6-------|-7-----6h7-10-7p6|
C |-4--------------|-0-3-0-3-------3|---7-4---7-4--4|---6-6-----------|

D#|-4--------------|----------------|----------------|----------------|
A#|-------8---6---5|---8-5----------|-------------8-6|-5--------------|
F |----------------|-------7-6-4-6-7|-7-4-7-4-7-4----|---7-6-4-6-7-6-4|
C |---4-4---4---4--|----------------|----------------|----------------|

D#|----------------|----------------|----------------|----------------|
A#|----------------|----------------|----------------|----------------|
F |--------77777777|6666666644444444|66666666--------|----------------|
C |00000000--------|----------------|--------77777777|4444444477777777|

D#|----------------|----------------|----------------|----------------|
A#|----------------|----------------|----------------|----------------|
F |--------77777777|6666666644444444|66666666--------|--------66666666|
C |00000000--------|----------------|--------77777777|44444444--------|

D#|----------------|----------------|----------------|----------------|
A#|----------------|----------------|----------------|----------------|
F |7777777777777777|7777777744444444|6666666666666666|----------------|
C |----------------|----------------|----------------|7777777766666666|

D#|----------------|----------------|----------------|----------------|
A#|----------------|----------------|----------------|----------------|
F |----------------|----666677776666|1111111111111111|1111111111111111|
C |4444444444444444|4444------------|----------------|----------------|


 Solo Riff
D#|----------------|----------------|-----------------|----------------|
A#|-6-----------8--|-6-----------8--|-9-----6---------|-9-----6--------|
F |-------6--------|-------6--------|--------------7--|-------------7--|
C |---4-4---4-4---4|---4-4---4-4---4|---0-0---0-0----0|---0-0---0-0---0|

D#|----------------|----------------|-----------------|----------------|
A#|-6-----------8--|-6-----------8--|-9-----6---------|-9-----6--------|
F |-------6--------|-------6--------|--------------7--|-------------7--|
C |---4-4---4-4---4|---4-4---4-4---4|---0-0---0-0----0|---0-0---0-0---0|

D#|-----------------|----------------|-----------------|------------------|
A#|-----------------|----------------|-----------------|------------------|
F |-7-4-------------|----------------|-----------------|-11-7---10-6---6-4|
C |-----0-11-7-0-9-6|-0-6-3-0-4-3-0-3|-4~--------------|------0------0----|

D#|-----------------|----------------|-----------------|-----------------|
A#|-----------------|----------------|-----------------|-----------------|
F |-6-4---7-4---10-7|----------------|-----------------|-----------------|
C |-----0-----0-----|-4~-------------|-3~--------------|-----3----3----0-|

D#|----------------|----------------|-----------------|------------------|
A#|----------------|----------------|-----------------|------------------|
F |----------------|----------------|-----------------|------------------|
C |-4~-------------|-7-6-3-6-7-4-6-4|-6~--------------|----7-7-7-----6---|

D#|----------------|----------------|-----------------|------------------|
A#|----------------|----------------|-----------------|------------------|
F |----------------|----------------|-4~--------------|------------------|
C |-4~-------------|-7-6-4-6-7-4-6-4|-----------------|-6----7\----4~----|

D#|----------------|----------------|----------------|
A#|----------------|----------------|----------------|
F |----------------|---------4------|---------4-----7|
C |-7------0~------|-0-3-6-3---6-3-0|-3-6-3-0---6-3--|


 Verse 3
D#|----------------|----------------|----------------|----------------|
A#|----------------|----------------|----------------|----------------|
F |----------------|----------------|----------------|----------------|
C |-4-----------5-4|-3--------------|-3~-------------|-------------4-6|

D#|----------------|----------------|----------------|----------------|
A#|----------------|----------------|----------------|----------------|
F |----------------|----------------|-4-----------4--|----------------|
C |-4-----------5-4|-3--------------|---7-6-4-6-7---6|-7-6-4-3-4-6-7-3|

D#|----------------|----------------|----------------|----------------|
A#|----------------|----------------|----------------|----------------|
F |-------------7-6|-5--------------|-----4---4------|-7-----------6--|
C |-7-4-7-4-7-4----|---7-6-4-6-7-6-4|-3-6---3---6-3-0|---6-3-0-3-6---6|

D#|----------------|----------------|----------------|----------------|
A#|-------------6-5|-8-5-----------5|----------------|----------------|
F |----------------|-----7-6-4-6-7--|-4-----------4--|----------------|
C |-7-4-7-4-7-4----|----------------|---7-6-4-6-7---6|-7-6-4-3-4-6-7-3|

D#|----------------|----------------|----------------|----------------|
A#|----------------|----------------|----------------|----------------|
F |-------------7-6|-5--------------|-----4---4------|-7-----------6--|
C |-7-4-7-4-7-4----|---7-6-4-6-7-6-4|-3-6---3---6-3-0|---6-3-0-3-6---6|

D#|----------------|----------------|----------------|----------------|
A#|-------------6-5|-8-5-----------5|----------------|----------------|
F |----------------|-----7-6-4-6-7--|-4-----------4--|----------------|
C |-7-4-7-4-7-4----|----------------|---7-6-4-6-7---6|-7-6-4-3-4-6-7-3|

D#|----------------|----------------|----------------|----------------|
A#|----------------|----------------|-------6--------|-6-8---6--------|
F |-6-------2---4-6|-6-------2---4-6|-6--------------|----------------|
C |---4-0-0---4----|---4-0-0---4----|---7-4---4-4-444|-----4---4-4-444|

D#|----------------|----------------|----------------|--------------|
A#|----------------|----------------|----------------|--------------|
F |-6-------2---4-6|-6-------2---4-6|-----------7-6--|--------------|
c |---4-0-0---4----|---4-0-0---4----|-9-776-7-9-----6|-6-3-6-3-676-3|


 Chorus
D#|----------------|----------------|----------------|-----------------|
A#|----------------|----------------|----------------|-----------------|
F |-------6---7p6--|-------4---6p4--|-------6---7p6--|--------6---4---2|
C |-4---4---4-----4|-6---6---6-----6|-7---7---7-----7|-0---0----0---0--|

D#|----------------|----------------|-----------------|----------------|
A#|----------------|----------------|-----------------|----------------|
F |-------6---7p6--|-------6---4---6|--------6---4---6|-------6---4---6|
C |-4---4---4-----4|-3---3---3---3--|-0---0----0---0--|-3---3---3---3--|

D#|----------------|----------------|----------------|----------------|
A#|----------------|----------------|----------------|----------------|
F |----------------|----------------|-6---4---2---4--|-6---4---2---4--|
C |-4~-------------|-6~-------------|---0---0---0---0|---0---0---0---0|

D#|----------------|----------------|---------------|--------------|
A#|----------------|----------------|---------------|--------------|
F |-6\-------------|-1--------------|---------------|--------------|
C |------3~--------|----0-000-000-00|0-000-000-0-4-0|-4~-----------|

D#|----------------|----------------|
A#|----------------|----------------|
F |---6---6--------|----------------|
C |-4---4---0-7-6-0|-4--------------|


 Legend
p = pull-off
h = hammer-on
\ = slide down
/ = slide up
~ = let ring
S = Slap
T = Tap


 Tabs by Matt Klassen I know they arn't 100% 
but i noticed there were no other bass tabs 
of this song on here so hope you enjoy! 





Comments


Popular Black Dahlia Murder tabs & chords
Deathmask Divine 2 Bass Tabs
The Window Bass Tabs
Contagion 1 Tabs
Everything Went BlackSolo Tabs
I Will Return Intro Tabs
Paint It Black Intro Tabs
Thy Horror Cosmic Tabs
To You Contortionist Tabs
Unhallowed 1 Tabs
Warborn Intro Tabs


Song lyrics



↑ Back to top | Tablatures and chords are parodies/interpretations of the original songs. You may use it for private study, scholarship, research or language learning purposes only
© 2014 AZChords.com Contact us | Privacy policy | DMCA | Add/correct tabs | Request tabs | Top 50 tabs