» » »

Deathmask Divine Tabs (ver.2)

Artists:  A B C D E F G H I J K L M N O P Q R S T U V W X Y Z # 

Deathmask Divine Tabs (ver.2)

Black Dahlia Murder
Rating:
0/5 (0 votes)

Hard to play? Try these video lessons and learn fast.
                (Intro)
ok.  so.  an earphone was blown out, so it will only be one side of the guitar.
i should buy some new ones, just like my parents should let me buy guitar pro.  tough sh*t.
until nocturnal there were a lot of good powertabs and regular tabs.  now there arent any.
just guitar pro.  someone PLEASE tab out all that good stuff on at least regular tabs.  anyway
people usually say there tab is 100 percent right and sh*t like that and it turns out wrong,
ill just say it sounds right.  and sorry that its only the intro.  i did this much and 
the rest off til later and now i dont have my c tuned guitar.

|-------------------------------------|
|-------------------------------------|
|-------------------------------------|
|-------------------------------------|
|------7---------10---13/7------------|
|-0000-5-000-000-8-00-11/5------------|

-------------------------------------|
-------------------------------------|
-------------------------------------|
-------------------------------------|
------7---------10---13--------------|
-0000-5-000-000-8-00-11--------------|

|------------------------------------|
|------------------------------------|
|------------------------------------|
|------------------------------------|
|---7-12-10---10-9-10----------------|
|-00-0--0--000--0-0--0---------------|

-------------------------------------|
-------------------------------------|
-------------------------------------|
---10-10-9---10-10-9-----------------|
-------------------------------------|
-88--8--8-888--8--8------------------|

-------------------------------------|
-------------------------------------|
-------------------------------------|
---7-7-9---7-7-5---------------------|
-------------------------------------|
-55-5-5-555-5-5-5--------------------|

-------------------------------------|
-------------------------------------|
-------------------------------------|
-------------------------------------|
---10-10-9-6-----9~------------------|
-77--7--7-7-08070--------------------|
(separate ending, but i cant figure it out)

--------------------------------------|
--------------------------------------|
--------------------------------------|
-5555----555577779999----99997777-----|
---------------------------------9999-|
-----0000------------0000-------------|

-------------------------------------|
-------------------------------------|
-------------------------------------|
-----444455557777----777755555555----|
-------------------------------------|
-0000------------0000----------------|

-------------------------------------|
-------------------------------------|
-------------------------------------|
-----444455557777--------------------|
-----------------7777--------6666----|
-0000----------------77778888--------|


-------------------------------------|
-------------------------------------|
-------------------------------------|
-------------------------------------|
-------------------------------------|
-------------------------------------|

blah just the beginning.  ill  finish it next week if someone doesnt beat me to it.
            
Hard to play? Try these video lessons and learn fast. | Correct




comments powered by Disqus
↑ Back to top | Tablatures and chords are parodies/interpretations of the original songs. You may use it for private study, scholarship, research or language learning purposes only