>
 >
Deathmask Divine

Deathmask Divine Bass Tabs

Black Dahlia Murder - Deathmask Divine chords, tabs, tablatures, lyrics

Guitar lessons | Add/correct | Request | Top 50 tabs Artists:  A B C D E F G H I J K L M N O P Q R S T U V W X Y Z 0-9

Deathmask Divine Bass Tabs – Black Dahlia Murder

CD, Sheet music, Poster

Do you like Deathmask Divine? Share with your friends now
Bass TabsBass Tabs v2Tabs
The Black Dahlia Murder
Nocturnal

Tempo:234

D#|--------------------------------------------------------------------|
A#|--------------------------------------------------------------------|
F |-------------------------------------------3------------------------|
C |-0-0-0-0--5---1-1--1---1-1--1--5---1-1--1-------0-0-0-0--5---1-1--1-|		

|-----------------------|
|-----------------------|     
|--------------------1--|
|1-1--1--5---1-1--1-----|

|----------------------------------------------------------------|
|----------------------------------------------------------------|
|----------------------------------------------------------------|
|0-0-0-0-0-0𥥤-0-0-0-0-0-0-0-08-8-8-8-8-8-8-8-8-8-8-8-8-8-8-8梶
|-----------------------------------------------------------------|
|-----------------------------------------------------------------|
|-----------------------------------------------------------------|
|5-5-5-5-5-5-5-5-5-5-5-5-55-5-5-2-2-2-2-2-2-2-2-2-2-2-2-2-2-2-2--| 
Then Repeat 

|-----------------------------------------------------------|
|-----------------------------------------------------------|
|-7-7-----7-7--9-9---10-10-----10-10-9---5-5-----5-5--7-7---|
|-----0-0-----------------0-0---------------0-0------------|

|-------------------------------------|
|-------------------------------------| 
|--------------------7-7-----7-7------| 
|-5-5-0-0-5-5--7-7------0-0-----5-5--| 

|-----------------------------------------|
|-------------------------------------------------|
|------------7-7--6-6-----6-6--7-7--9-9----9-9-7-7|
|7-7-0-0-7-7----------0-0---------------0-0-------|

|------------------------------| |-------------------------------|
|------------------------------| |-------------------------------|
|--12---10------7---9----------| |-------------------------------|
|-----------------------------| |0-0-0-0-0-0-0-08-8-8-8-8-8-8-8|

|--------------------|     |----------------|	
|--------------------|     |----------------|
|--7-----------------|x3   |----------------|
|----0-0-0-0-------|     |5-5-4-4-5-5-4-4-|

|--------------------|     |----------------|	
|--------------------|     |----------------|
|--7-----------------|x3   |------------6-6-|
|----0-0-0-0-------|     |5-5-4-4-5-5-----|

|--------------------|     |----------------|   |---|
|--------------------|     |----------------|   |---|
|--7-----------------|x3   |----------------|   |---|
|----0-0-0-0-------|     |5-5-4-4-5-5-4-4-|   |-7-|

|----------------------------------------------------------------|
|----------------------------------------------------------------|
|----------------------------------------------------------------|
|0-0-0-0-0-0𥥤-0-0-0-0-0-0-0-08-8-8-8-8-8-8-8-8-8-8-8-8-8-8-8梶
|-----------------------------------------------------------------|
|-----------------------------------------------------------------|
|-----------------------------------------------------------------|
|5-5-5-5-5-5-5-5-5-5-5-5-55-5-5-2-2-2-2-2-2-2-2-2-2-2-2-2-2-2-2--| 
Then Repeat 

|--------------------|     |----------------|	
|--------------------|     |----------------|
|--7-----------------|x3   |----------------|
|----0-0-0-0-------|     |5-5-4-4-5-5-4-4-|

|--------------------|     |----------------|   |---------------|
|--------------------|     |----------------|   |---------------|
|--7-----------------|x3   |--------7-7-----|   |--------9-9----|
|----0-0-0-0-------|     |7-7-5-5-----5-5-|   |8-8-7-7-----7-7|








|----------------------------------------------------------------|
|----------------------------------------------------------------|
|----------------------------------------------------------------|
|8-8-8-8-8-8𨃌-8-8-8-8-8-8-8-88-8-8-8-8-8-8-8-8-8-8-8-8-8-8-8梶

|----------------------------------------------------------------|
|----------------------------------------------------------------|
|----------------------------------------------------------------|
|5-5-5-5-5-5-5-5-5-5-5-5-55-5-5-5-5-5-5-5-5-5-5-5-5-5-5-5-5-5-5-| 

|----------------------------------------------------------------|
|----------------------------------------------------------------|
|----------------------------------------------------------------|
|0-0-0-0-0-0𥥤-0-0-0-0-0-0-0-00-0-0-0-0-0-0-0-0-0-0-0-0-0-0-0梶

|----------------------------------------------------------------|
|----------------------------------------------------------------|
|----------------------------------------------------------------|
|0-0-0-0-0-0-0-0-0-0-0-0-0-0-0-0-0-0-0-0-0-0-0-0-0-0-0-0-0-0-0-0-| 


|----------------------------------------------------------------|
|----------------------------------------------------------------|
|----------------------------------------------------------------|
|8-8-8-8-8-8𨃌-8-8-8-8-8-8-8-88-8-8-8-8-8-8-8-8-8-8-8-8-8-8-8梶

|----------------------------------------------------------------|
|----------------------------------------------------------------|
|----------------------------------------------------------------|
|5-5-5-5-5-5-5-5-5-5-5-5-55-5-5-5-5-5-5-5-5-5-5-5-5-5-5-5-5-5-5-| 

|----------------------------------------------------------------|
|----------------------------------------------------------------|
|----------------------------------------------------------------|
|0-0-0-0-0-0𥥤-0-0-0-0-0-0-0-00-0-0-0-0-0-0-0-0-0-0-0-0-0-0-0梶

|----------------------------------------------------------------|
|----------------------------------------------------------------|
|----------------------------------------------------------------|
|0-0-0-0-0-0-0-0-0-0-0-0-0-0-0-0-0-0-0-0-0-0-0-0-0-0-0-0-0-0-0-0-| 


|----------------------------------------------------------------|
|----------------------------------------------------------------|
|----------------------------------------------------------------|
|8-8-8-8-8-8𨃌-8-8-8-8-8-8-8-88-8-8-8-8-8-8-8-8-8-8-8-8-8-8-8梶

|----------------------------------------------------------------|
|----------------------------------------------------------------|
|----------------------------------------------------------------|
|5-5-5-5-5-5-5-5-5-5-5-5-55-5-5-5-5-5-5-5-5-5-5-5-5-5-5-5-5-5-5-| 

|----------------------------------------------------------------|
|----------------------------------------------------------------|
|----------------------------------------------------------------|
|0-0-0-0-0-0𥥤-0-0-0-0-0-0-0-00-0-0-0-0-0-0-0-0-0-0-0-0-0-0-0梶

|----------------------------------------------------------------|
|----------------------------------------------------------------|
|----------------------------------------------------------------|
|0-0-0-0-0-0-0-0-0-0-0-0-0-0-0-0-0-0-0-0-0-0-0-0-0-0-0-0-0-0-0-0-| 

|-----------------------------------------------------|
|-----------------------------------------------------| 
|--3---------2----------------------------------------|
|------------------2---0------8---7----2------2----0--|

|----------------------------------------------------------|
|----------------------------------------------------------|    
|------3-3---------------------------4-4-4-4-4-4-----------|
|-3-3-------3-3-5-5-5----6--6-6--6-------------------------|






|---------------------------------------------------------------|    
|---------------------------------------------------------------|      
|---------------------------------------------------------------| 
|8-8-8-8-8-8-8-8-8-8-8-8-8-8-8-8-2-2-2-2-2-2-2-2-2-2-2-2-2-2-2-2|    

|---------------------------------------------------------------|
|---------------------------------------------------------------|    
|--------------------------------------------------------------|
|0-0-0-0-0-0-0-0-0-0-0-0-0-0-0-0-0-0-0-0-0-0-0-0-0-0-0-0-0-0-0-0|

|---------------------------------------------------------------|
|---------------------------------------------------------------|    
|--------------------------------------------------------------|
|0-0-0-0-0-0-0-0-0-0-0-0-0-0-0-0-0-0-0-0-0-0-0-0-0-0-0-0-0-0-0-0|

Then Repeat 3 times

|------------------------------------------------------------|
|--------------------------------------------------------7---|    
|7--------------1\6-7---7-6------7-------------1\6-7--9------|x4
|--0-0-0-0-0-0-------0---0--0------0-0-0-0-0-0------0--0-----|

|----------------|
|----------------| 	
|----------------|
|0-0-0-0-0-0-0-0-|

|---------------------------------------------------------------|    
|---------------------------------------------------------------|      
|---------------------------------------------------------------| 
|8-8-8-8-8-8-8-8-8-8-8-8-8-8-8-8-2-2-2-2-2-2-2-2-2-2-2-2-2-2-2-2|    

|---------------------------------------------------------------|
|---------------------------------------------------------------|    
|--------------------------------------------------------------|
|0-0-0-0-0-0-0-0-0-0-0-0-0-0-0-0-0-0-0-0-0-0-0-0-0-0-0-0-0-0-0-0|

|---------------------------------------------------------------|
|---------------------------------------------------------------|    
|--------------------------------------------------------------|
|0-0-0-0-0-0-0-0-0-0-0-0-0-0-0-0-0-0-0-0-0-0-0-0-0-0-0-0-0-0-0-0|

Then Repeat 3 times

|----------------|
|----------------| 	
|----------------|
|0---------------|





Comments


Popular Black Dahlia Murder tabs & chords
A Vulgar Picture Bass Tabs
Contagion Bass Tabs
Elder Misanthropy Bass Tabs
Elder Misanthropy 2 Bass Tabs
Everything Went Black Bass Tabs
Elder Misanthropy 2 Tabs
Necropolis Tabs
Necropolis Intro Tabs
Novelty Crosses Tabs
Unhallowedfuneral Thirst Tabs


Song lyrics



↑ Back to top | Tablatures and chords are parodies/interpretations of the original songs. You may use it for private study, scholarship, research or language learning purposes only
© 2014 AZChords.com Contact us | Privacy policy | DMCA | Add/correct tabs | Request tabs | Top 50 tabs