» » »

Black Dahlia Murder, Deathmask Divine Bass tabs (ver.1)

Artists:  A B C D E F G H I J K L M N O P Q R S T U V W X Y Z # 

Deathmask Divine Bass tabs (ver.1)

Black Dahlia Murder Tabs
 Rating:
4/5 (4 votes)
Deathmask Divine lessons Tabs too difficult? Try these video lessons and learn fast
1
                The Black Dahlia Murder
Nocturnal

Tempo:234

D#|--------------------------------------------------------------------|
A#|--------------------------------------------------------------------|
F |-------------------------------------------3------------------------|
C |-0-0-0-0--5---1-1--1---1-1--1--5---1-1--1-------0-0-0-0--5---1-1--1-|		

|-----------------------|
|-----------------------|     
|--------------------1--|
|1-1--1--5---1-1--1-----|

|----------------------------------------------------------------|
|----------------------------------------------------------------|
|----------------------------------------------------------------|
|0-0-0-0-0-0—0—0-0-0-0-0-0-0-0-0—8-8-8-8-8-8-8-8-8-8-8-8-8-8-8-8—|
|-----------------------------------------------------------------|
|-----------------------------------------------------------------|
|-----------------------------------------------------------------|
|5-5-5-5-5-5-5-5-5-5-5-5-5—5-5-5-2-2-2-2-2-2-2-2-2-2-2-2-2-2-2-2--| 
Then Repeat 

|-----------------------------------------------------------|
|-----------------------------------------------------------|
|-7-7-----7-7--9-9---10-10-----10-10-9---5-5-----5-5--7-7---|
|-----0-0-----—------------0-0---------------0-0------------|

|-------------------------------------|
|-------------------------------------| 
|--------------------7-7-----7-7------| 
|-5-5-0-0-5-5--7-7—------0-0-----5-5--| 

|-----------------------------------------|
|-------------------------------------------------|
|------------7-7--6-6-----6-6--7-7--9-9----9-9-7-7|
|7-7-0-0-7-7----------0-0---------------0-0-------|

|------------------------------| |-------------------------------|
|------------------------------| |-------------------------------|
|--12---10------7---9----------| |-------------------------------|
|---—--------------------------| |0-0-0-0-0-0-0-0—8-8-8-8-8-8-8-8|

|--------------------|     |----------------|	
|--------------------|     |----------------|
|--7-----------------|x3   |----------------|
|----0-0-0-0—-—------|     |5-5-4-4-5-5-4-4-|

|--------------------|     |----------------|	
|--------------------|     |----------------|
|--7-----------------|x3   |------------6-6-|
|----0-0-0-0—-—------|     |5-5-4-4-5-5-----|

|--------------------|     |----------------|   |---|
|--------------------|     |----------------|   |---|
|--7-----------------|x3   |----------------|   |---|
|----0-0-0-0—-—------|     |5-5-4-4-5-5-4-4-|   |-7-|

|----------------------------------------------------------------|
|----------------------------------------------------------------|
|----------------------------------------------------------------|
|0-0-0-0-0-0—0—0-0-0-0-0-0-0-0-0—8-8-8-8-8-8-8-8-8-8-8-8-8-8-8-8—|
|-----------------------------------------------------------------|
|-----------------------------------------------------------------|
|-----------------------------------------------------------------|
|5-5-5-5-5-5-5-5-5-5-5-5-5—5-5-5-2-2-2-2-2-2-2-2-2-2-2-2-2-2-2-2--| 
Then Repeat 

|--------------------|     |----------------|	
|--------------------|     |----------------|
|--7-----------------|x3   |----------------|
|----0-0-0-0—-—------|     |5-5-4-4-5-5-4-4-|

|--------------------|     |----------------|   |---------------|
|--------------------|     |----------------|   |---------------|
|--7-----------------|x3   |--------7-7-----|   |--------9-9----|
|----0-0-0-0—-—------|     |7-7-5-5-----5-5-|   |8-8-7-7-----7-7|








|----------------------------------------------------------------|
|----------------------------------------------------------------|
|----------------------------------------------------------------|
|8-8-8-8-8-8—8—8-8-8-8-8-8-8-8-8—8-8-8-8-8-8-8-8-8-8-8-8-8-8-8-8—|

|----------------------------------------------------------------|
|----------------------------------------------------------------|
|----------------------------------------------------------------|
|5-5-5-5-5-5-5-5-5-5-5-5-5—5-5-5-5-5-5-5-5-5-5-5-5-5-5-5-5-5-5-5-| 

|----------------------------------------------------------------|
|----------------------------------------------------------------|
|----------------------------------------------------------------|
|0-0-0-0-0-0—0—0-0-0-0-0-0-0-0-0—0-0-0-0-0-0-0-0-0-0-0-0-0-0-0-0—|

|----------------------------------------------------------------|
|----------------------------------------------------------------|
|----------------------------------------------------------------|
|0-0-0-0-0-0-0-0-0-0-0-0-0-0-0-0-0-0-0-0-0-0-0-0-0-0-0-0-0-0-0-0-| 


|----------------------------------------------------------------|
|----------------------------------------------------------------|
|----------------------------------------------------------------|
|8-8-8-8-8-8—8—8-8-8-8-8-8-8-8-8—8-8-8-8-8-8-8-8-8-8-8-8-8-8-8-8—|

|----------------------------------------------------------------|
|----------------------------------------------------------------|
|----------------------------------------------------------------|
|5-5-5-5-5-5-5-5-5-5-5-5-5—5-5-5-5-5-5-5-5-5-5-5-5-5-5-5-5-5-5-5-| 

|----------------------------------------------------------------|
|----------------------------------------------------------------|
|----------------------------------------------------------------|
|0-0-0-0-0-0—0—0-0-0-0-0-0-0-0-0—0-0-0-0-0-0-0-0-0-0-0-0-0-0-0-0—|

|----------------------------------------------------------------|
|----------------------------------------------------------------|
|----------------------------------------------------------------|
|0-0-0-0-0-0-0-0-0-0-0-0-0-0-0-0-0-0-0-0-0-0-0-0-0-0-0-0-0-0-0-0-| 


|----------------------------------------------------------------|
|----------------------------------------------------------------|
|----------------------------------------------------------------|
|8-8-8-8-8-8—8—8-8-8-8-8-8-8-8-8—8-8-8-8-8-8-8-8-8-8-8-8-8-8-8-8—|

|----------------------------------------------------------------|
|----------------------------------------------------------------|
|----------------------------------------------------------------|
|5-5-5-5-5-5-5-5-5-5-5-5-5—5-5-5-5-5-5-5-5-5-5-5-5-5-5-5-5-5-5-5-| 

|----------------------------------------------------------------|
|----------------------------------------------------------------|
|----------------------------------------------------------------|
|0-0-0-0-0-0—0—0-0-0-0-0-0-0-0-0—0-0-0-0-0-0-0-0-0-0-0-0-0-0-0-0—|

|----------------------------------------------------------------|
|----------------------------------------------------------------|
|----------------------------------------------------------------|
|0-0-0-0-0-0-0-0-0-0-0-0-0-0-0-0-0-0-0-0-0-0-0-0-0-0-0-0-0-0-0-0-| 

|-----------------------------------------------------|
|-----------------------------------------------------| 
|--3---------2----------------------------------------|
|------------------2---0------8---7----2------2----0--|

|----------------------------------------------------------|
|----------------------------------------------------------|    
|------3-3---------------------------4-4-4-4-4-4-----------|
|-3-3-------3-3-5-5-5----6--6-6--6-------------------------|






|---------------------------------------------------------------|    
|---------------------------------------------------------------|      
|---------------------------------------------------------------| 
|8-8-8-8-8-8-8-8-8-8-8-8-8-8-8-8-2-2-2-2-2-2-2-2-2-2-2-2-2-2-2-2|    

|---------------------------------------------------------------|
|---------------------------------------------------------------|    
|-----------------------------------—---------------------------|
|0-0-0-0-0-0-0-0-0-0-0-0-0-0-0-0-0-0-0-0-0-0-0-0-0-0-0-0-0-0-0-0|

|---------------------------------------------------------------|
|---------------------------------------------------------------|    
|-----------------------------------—---------------------------|
|0-0-0-0-0-0-0-0-0-0-0-0-0-0-0-0-0-0-0-0-0-0-0-0-0-0-0-0-0-0-0-0|

Then Repeat 3 times

|------------------------------------------------------------|
|--------------------------------------------------------7---|    
|7--------------1\6-7---7-6------7-------------1\6-7--9------|x4
|--0-0-0-0-0-0-------0---0--0------0-0-0-0-0-0------0--0-----|

|----------------|
|----------------| 	
|----------------|
|0-0-0-0-0-0-0-0-|

|---------------------------------------------------------------|    
|---------------------------------------------------------------|      
|---------------------------------------------------------------| 
|8-8-8-8-8-8-8-8-8-8-8-8-8-8-8-8-2-2-2-2-2-2-2-2-2-2-2-2-2-2-2-2|    

|---------------------------------------------------------------|
|---------------------------------------------------------------|    
|-----------------------------------—---------------------------|
|0-0-0-0-0-0-0-0-0-0-0-0-0-0-0-0-0-0-0-0-0-0-0-0-0-0-0-0-0-0-0-0|

|---------------------------------------------------------------|
|---------------------------------------------------------------|    
|-----------------------------------—---------------------------|
|0-0-0-0-0-0-0-0-0-0-0-0-0-0-0-0-0-0-0-0-0-0-0-0-0-0-0-0-0-0-0-0|

Then Repeat 3 times

|----------------|
|----------------| 	
|----------------|
|0---------------|
            
Submit corrections

comments powered by Disqus
↑ Back to top | Black Dahlia Murder Bass for Deathmask Divine. Lyrics for acoustic guitar and electric guitar. 1 Tablatures and chords are parodies/interpretations of the original songs. You may use it for private study, scholarship, research or language learning purposes only