» » »

Built For Sin Tabs (ver.1)

Artists:  A B C D E F G H I J K L M N O P Q R S T U V W X Y Z # 

Built For Sin Tabs (ver.1)

Black Dahlia Murder
Rating:
1/5 (1 vote)

Hard to play? Try these video lessons and learn fast.
                drop c

.=palm mute

D----------------------------------------/
A----------------------------------------/
F----------------------------------------/
C----111-111---111-111---000-000-000-----/
G----111-111---111-111---000-000-000-----/
C--3-111-111-4-111-111-1-000-000-000-3063/
     ... ...   ... ...   ... ... ... ..
D----------------------------------------/
A----------------------------------------/
F----------------------------------------/
C-111---111---000-000-000----------------/
G-111---111---000-000-000-2--------------/
C-111-4-111-1-000-000-000---33-----------/
  ...   ...   ... ... ...
D----------------------------------------/
A----------------------------------------/
F----------------------------------------/
C-111---111---000-000-000-03p0-----------/
G-111---111---000-000-000------2---------/
C-111-4-111-1-000-000-000--------3-------/
  ...   ...   ... ... ...
D----------------------------------------/
A----------------------------------------/
F----------------------------------------/
C-111---111---000-000-000----------------/
G-111---111---000-000-000----------------/
C-111-4-111-1-000-000-000-3060-----------/
  ...   ...   ... ... ... .. .
D------------------------------------------------------------/
A------------------------------------------------------------/
F------------------------------------------------------------/
C-6(keep playing till other notes start)84---84---84---84---8/
G------------------------------------------6----6----6----6--/
C------------------------------------------------------------/

D------------------------------------------------------------/
A------------------------------------------------------------/
F------------------------------------------------------------/
C-6(keep playing till other notes start)84---84---83---63---6/
G------------------------------------------6----6----5----5--/
C------------------------------------------------------------/

D----------------------------------------/
A----------------------------------------/
F-8--------------------------------------/
C---9-11-8-9----8------------------------/
G------------11---9-11-8-9-6-5-----------/
C----------------------------------------/

D----------------------------------------/
A----------------------------------------/
F----------------------------------------/
C-000-000---000-000----------------------/
G-000-000---000-000----------------------/
C-000-000-3-000-000----------------------/
  ... ...   ... ...      [repeat a few times]
D----------------------------------------/
A----------------------------------------/
F----------------------------------------/
C-1~-------------------------------------/
G-1~-------------------------------------/
C-1~-------------------------------------/
            
Hard to play? Try these video lessons and learn fast. | Correct




comments powered by Disqus
↑ Back to top | Tablatures and chords are parodies/interpretations of the original songs. You may use it for private study, scholarship, research or language learning purposes only