» » »

Black Dahlia Murder, Built For Sin Tabs (ver.3)

Artists:  A B C D E F G H I J K L M N O P Q R S T U V W X Y Z # 

Built For Sin Tabs (ver.3)

Black Dahlia Murder Tabs
Rating:
0/5 (0 votes)
Built For Sin lessons Tabs too difficult? Try these video lessons and learn fast
                -------------------------------------------------------------------------------
-------------------------------------------------------------------------------

Tuning: C Standard: C-F-A#-D#-G-C

There are two ways to play this song. One is for the lead guitar (higher part) and the 
is for the rhthym (lower part). I've tabbed both.


. = Palm Mute

Lead Guitar:

|---------------------------------------------------------------------------|
|---------------------------------------------------------------------------|
|---------------------------------------------------------------------------|
|---------------------------------------------------------------------------|
|---------------------------------------------------------------------------|
|-6--111--111----8---111--111---4--000--000--000------6--0--9---------------|
     ...  ...        ...  ...      ...  ...  ...      .  .

|---------------------------------------------------------------------------|
|---------------------------------------------------------------------------|
|---------------------------------------------------------------------------|
|---------------------------------------------------------------------------|
|------------------------------------------------------4--------------------|
|-6--111--111---8---111--111---4--000--000--000-----------6-----------------|
     ...  ...       ...  ...      ...  ...  ...

|---------------------------------------------------------------------------|
|---------------------------------------------------------------------------|
|---------------------------------------------------------------------------|
|---------------------------------------------------5--5h8p5----------------|
|------------------------------------------------------------7--------------|
|-6--111--111---8---111--111---4--000--000--000----------------6------------|
     ...  ...       ...  ...      ...  ...  ...

|---------------------------------------------------------------------------|
|---------------------------------------------------------------------------|
|---------------------------------------------------------------------------|
|---------------------------------------------------------------------------|
|-------------------------------------------------------6--9--8--5----------|
|--6--111--111---8---111--111---4--000--000--000----------------------------|
      ...  ...       ...  ...      ...  ...  ...        .  .  .  .

Your going to have to figure out the timing of these on your own.

|---------------------------------------------------------------------------|
|---------------------------------------------------------------------------|
|---------------------------------------------------------------------------|
|-8888888888----8------8---6---10-6---10-6---10-6---10----------------------|
|-------------7--10--7--10---8------8------8------8-------------------------|
|---------------------------------------------------------------------------|

|---------------------------------------------------------------------------|
|---------------------------------------------------------------------------|
|---------------------------------------------------------------------------|
|-8888888888----8------8---6---10-6---10-5---8-5---8------------------------|
|-------------7--10--7--10---8------8------7-----7--------------------------|
|---------------------------------------------------------------------------|

I don't know any of the lead stuff after about 0:48 in the song.


Rhythm Guitar:

|---------------------------------------------------------------------------|
|---------------------------------------------------------------------------|
|---------------------------------------------------------------------------|
|---------------------------------------------------------------------------|
|---------------------------------------------------------------------------|
|-3--111--111--4--111--111-----1--000--000--000--------3--0--6--------------|
     ...  ...     ...  ...        ...  ...  ...        .  .

|---------------------------------------------------------------------------|
|---------------------------------------------------------------------------|
|---------------------------------------------------------------------------|
|---------------------------------------------------------------------------|
|---------------------------------------------------1-----------------------|
|-3--111--111--4--111--111-----1--000--000--000--------3--------------------|
     ...  ...     ...  ...        ...  ...  ...

|---------------------------------------------------------------------------|
|---------------------------------------------------------------------------|
|---------------------------------------------------------------------------|
|-------------------------------------------------2--2h5p2------------------|
|----------------------------------------------------------4----------------|
|-3--111--111--4--111--111-----1--000--000--000--------------3--------------|
     ...  ...     ...  ...        ...  ...  ...


|---------------------------------------------------------------------------|
|---------------------------------------------------------------------------|
|---------------------------------------------------------------------------|
|---------------------------------------------------------------------------|
|------------------------------------------------------3--6--5--2-----------|
|-3--111--111--4--111--111-----1--000--000--000-----------------------------|
     ...  ...     ...  ...        ...  ...  ...        .  .  .  .

|---------------------------------------------------------------------------|
|---------------------------------------------------------------------------|
|---------------------------------------------------------------------------|
|---------------------------------------------------------------------------|
|----------8-----------------7-----------------10-------------------10------|
|-6---9-------------6---9-------------6---9----------------6---9------------|

(You especially have to listen to the song here to get the timing down.)
|---------------------------------------------------------------------------|
|---------------------------------------------------------------------------|
|---------------------------------------------------------------------------|
|---------------------------------------------------------------------------|
|------3-------------3------------------------------------------------------|
|--1-----4------1------4----------------------------------------------------|

|---------------------------------------------------------------------------|
|---------------------------------------------------------------------------|
|---------------------------------------------------------------------------|
|---------------------------------------------------------------------------|
|----------8-----------------7-----------------10-------------------10------|
|-6---9-------------6---9-------------6---9----------------6---9------------|

(Here too.)
|---------------------------------------------------------------------------|
|---------------------------------------------------------------------------|
|---------------------------------------------------------------------------|
|---------------------------------------------------------------------------|
|-------3-------------------------------------------------------------------|
|---1------4---0------------------------------------------------------------|

I think it goes on like this for the rest of the song as far as the rhthym goes. I know 
lead goes to higher notes.

|---------------------------------------------------------------------------|
|---------------------------------------------------------------------------|
|--10-----------------------------------------------------------------------|
|----11-13-10-11-10---------------------------------------------------------|
|------------------13-11-13-10 11-------------------------------------------|
|--------------------------------13-----------------------------------------|
   . .  .  .  .  . .  .  .   . .  .

|---------------------------------------------------------------------------|
|---------------------------------------------------------------------------|
|---------------------------------------------------------------------------|
|---------------------------------------------------------------------------|
|---------------------------------------------------------------------------|
|--8--000-000--3--000-000---------------------------------------------------|
      ... ...     ... ...
Both guitars at the end:

|---------------------------------------------------------------------------|
|---------------------------------------------------------------------------|
|---------------------------------------------------------------------------|
|----------------------------------------3----------------------------------|
|----------------------------------------3-hold-----------------------------|
|--8--000-000--12--000-000---------------1----------------------------------|
      ... ...      ... ...

anything else out that I havent.
            
Submit corrections

comments powered by Disqus
↑ Back to top | Black Dahlia Murder Tabs for Built For Sin. Lyrics for acoustic guitar and electric guitar. Tablatures and chords are parodies/interpretations of the original songs. You may use it for private study, scholarship, research or language learning purposes only