» » »

Silhouettic Bass tabs (ver.1)

Artists:  A B C D E F G H I J K L M N O P Q R S T U V W X Y Z # 

Silhouettic Bass tabs (ver.1)

Birds Of Tokyo
Rating:
0/5 (0 votes)

Hard to play? Try these video lessons and learn fast.
                Silhouettic by Birds of Tokyo

VERSE RIFF:
G-|------------------|
D-|------------------|
A-|-3---------2------|
E-|-----0--------2-3-|

PRE CHORUS:
G-|-----------------------------------------------------------------|
D-|-----------------------------------------------------------------|
A-|-0-0-0-0-0-0-0-0-0-0-0-0-0-0-0-0-3-3-3-3-3-3-3-3-3-3-3-3-3-3-3-3-|
E-|-----------------------------------------------------------------|

G-|---------------------------------------------------|
D-|---------------------------------------------------|
A-|-0-0-0-0-0-0-0-0-0-0-0-0-0-0-0-0-3-3-3-3-3-3-3-3-3-|
E-|---------------------------------------------------|

CHORUS:
G-|-------------------------|
D-|-------------------------|
A-|------/7-----------------|
E-|-0--------------7----3---|

This is just the rough idea, play around with it a bit… You’ll figure it out.

BRIDGE:
G-|-----------------------------------------------------------------|
D-|-----------------------------------------------------------------|
A-|-----------------------------------------------------------------|
E-|-1-1-1-1-1-1-1-1-1-1-1-1-1-1-1-1-2-2-2-2-2-2-2-2-2-2-2-2-2-2-2-2-|

OUTRO:
G-|------------------|
D-|------------------|
A-|------------------|
E-|-0-0-0-0-0-0-0-0--|   [only play five on the last (eighth) time]

Order:

CHORUS x2
VERSE x4
PRE CHORUS x1
CHORUS x4
VERSE x4
PRE CHORUS x1
CHORUS x4
BRIDGE x2
VERSE x4 (over guitar solo)
PRE CHORUS x1
CHORUS x4
OUTRO x8
            
Hard to play? Try these video lessons and learn fast. | Correct




comments powered by Disqus
↑ Back to top | Tablatures and chords are parodies/interpretations of the original songs. You may use it for private study, scholarship, research or language learning purposes only