>
 >
Silhouettic

Silhouettic Guitar Tabs

Birds Of Tokyo - Silhouettic chords, tabs, tablatures, lyrics

Guitar lessons | Add/correct | Request | Top 50 tabs Artists:  A B C D E F G H I J K L M N O P Q R S T U V W X Y Z 0-9

Silhouettic Guitar Tabs – Birds Of Tokyo

CD, Sheet music, Poster

Do you like Silhouettic? Share with your friends now
Bass TabsBass Tabs v2ChordsTabsTabs v2Tabs v3


INTRO:
E|----------------------------------------------------------------------------|
B|----------------------------------------------------------------------------|
G|----------------------------------------------------------------------------|
D|----------------------------------------------------------------------------|
A|--2-2-2-2-2-2-2-2-2-2-2-2-7-7-9-9--9-9-9--10-10-10--5-5-5-5-5-5-5-5-5-5-5-5-|(x2)
E|--0-0-0-0-0-0-0-0-0-0-0-0-0-0-0-0--7-7-7--7--7--7---3-3-3-3-3-3-3-3-3-3-3-3-|

VERSE RIFF:
E-|------------------|
B-|------------------|
G-|------------------|
D-|------------------|
A-|-10-2------9-4-5--|(x 4)
E-|-8--0------7-2-3--|

PRE CHORUS:
    A5   C5   A5   C5   
E-|---------------------|
B-|---------------------|
G-|---------------------|
D-|-7----10---7----10---|
A-|-7----10---7----10---|
E-|-5----8----5----8----|

CHORUS:
E-|--------------------------------------|
B-|--------------------------------------|
G-|--------------------------------------|
D-|-2--9--10--2-2-2--9--9-9-9--5--5-5-5--|
A-|-2--9--10--2-2-2--9--9-9-9--5--5-5-5--|(x 4)
E-|-0--7--8---0-0-0--7--7-7-7--3--3-3-3--|

VERSE RIFF:
E-|------------------|
B-|------------------|
G-|------------------|
D-|------------------|
A-|-10-2------9-4-5--|(x 4)
E-|-8--0------7-2-3--|

PRE CHORUS:
    A5   C5   A5   C5   
E-|---------------------|
B-|---------------------|
G-|---------------------|
D-|-7----10---7----10---|
A-|-7----10---7----10---|
E-|-5----8----5----8----|

CHORUS:
E-|-----------------------------------|
B-|-----------------------------------|
G-|-----------------------------------|
D-|-2--9--10--2-2-2--9--10--5--5-5-5--|
A-|-2--9--10--2-2-2--9--10--5--5-5-5--|(x 4)
E-|-0--7--8---0-0-0--7--8---3--3-3-3--|

BRIDGE:
E-|------------------------------------------------------------------|
B-|------------------------------------------------------------------|
G-|------------------------------------------------------------------|
D-|------------------------------------------------------------------|
A-|-3-3-3-3-3-3-3-3-3-3-3-3-3-3-3-3--3-3-3-3-3-3-3-3-3-3-3-3-3-3-3-3-|(x 2)
E-|-1-1-1-1-1-1-1-1-1-1-1-1-1-1-1-1--2-2-2-2-2-2-2-2-2-2-2-2-2-2-2-2-|

E-|------------------|
B-|------------------|
G-|------------------|
D-|------------------|
A-|-10-2------9-4-5--|(x 4)
E-|-8--0------7-2-3--|

PRE CHORUS:
    A5   C5   A5   C5   
E-|---------------------|
B-|---------------------|
G-|---------------------|
D-|-7----10---7----10---|
A-|-7----10---7----10---|
E-|-5----8----5----8----|

CHORUS:
E-|-----------------------------------|
B-|-----------------------------------|
G-|-----------------------------------|
D-|-2--9--10--2-2-2--9--10--5--5-5-5--|
A-|-2--9--10--2-2-2--9--10--5--5-5-5--|(x 4)
E-|-0--7--8---0-0-0--7--8---3--3-3-3--|

OUTRO:
    E5
E-|------------------------------|
B-|------------------------------|
G-|------------------------------|
D-|-2-2-2-2-2-2-2-2-2-2-2-2------|   and continue till end
A-|-2-2-2-2-2-2-2-2-2-2-2-2------|
E-|-0-0-0-0-0-0-0-0-0-0-0-0------|





Comments


Popular Birds Of Tokyo tabs & chords
Broken Bones Bass Tabs
Black Sheets Chords
Eduardo Chords
Plans Chords
Broken Bones Tabs
Lanterns Tabs
Rose Tabs
Silhouettic 3 Tabs
The Gap Tabs
White Witch Ukulele


Song lyrics



↑ Back to top | Tablatures and chords are parodies/interpretations of the original songs. You may use it for private study, scholarship, research or language learning purposes only
© 2014 AZChords.com Contact us | Privacy policy | DMCA | Add/correct tabs | Request tabs | Top 50 tabs