» » »

Big Wreck, Knee Deep Tabs (ver.1)

Artists:  A B C D E F G H I J K L M N O P Q R S T U V W X Y Z # 

Knee Deep Tabs (ver.1)

Big Wreck Tabs
Rating:
0/5 (0 votes)
Hard to play? Try these video lessons and learn fast.
                Big Wreck

Tuning - Open Gm (1/2 step down) D-G-D-G-Bb-d

Intro  let ring
 d|-----(0)----------------|
Bb|-----(4)----------------|
 G|-----(0)----------------|
 D|-----(0)---------0------|
 G|-----(0)---------2------|
 D|-----------------0------|

Verse pt1                 sometimes this part
 d|---5\7-5\7-5\7-5\7-7----|--7\8/7--|
Bb|------------------------|---------|
 G|---4\6-4\6-4\6-4\6-6----|--6\7/6--|
 D|---5\7-5\7-5\7-5\7-7----|--7\8/7--|
 G|------------------------|---------|
 D|------------------------|---------|

Verse pt 2
 d|------------------------|
Bb|---6\8-6\8-6\8-6\8-8----|
 G|---5\7-5\7-5\7-5\7-7----|
 D|------------------------|
 G|---5\7-5\7-5\7-5\7-7----|
 D|------------------------|

Pre-chorus
 d|------------------------------------|
Bb|--------------------0---------------|
 G|--5-------3--3-2--2-0---5-----------|
 D|------3-------------5-------3--4----|
 G|--5-------3--3-2--2-----5-----------|
 D|------3-------------5-------3--4----|

Chorus
 d|-------------------------------------------------|
Bb|-------------------------------------------------|
 G|--5\7-3\5----5\7-3\5----5\7-3\5---5\7-3\5--------|
 D|----------5----------4----------3---------2------|
 G|--5\7-3\5----5\7-3\5----5\7-3\5---5\7-3\5--------|
 D|----------5----------4----------3---------2------|

Second chorus
 d|-------------------------------------------------|
Bb|-------------------------------------------------|
 G|--5\7-3\5----5\7-3\5----5\7-3\5---5\7-3\5--------|
 D|----------5----------4----------3---------2---1--|
 G|--5\7-3\5----5\7-3\5----5\7-3\5---5\7-3\5--------|
 D|----------5----------4----------3---------2---1--|

Interlude
 d|-------------------------------------------------|
Bb|-----------0-------------------------------------|
 G|--3--2--1--0-------3-3-3-3-3-3-------------------|
 D|-----------5--4----------------0-0-0-0-0-0-------|
 G|--3--2--1----------3-3-3-3-3-3-2-2-2-2-2-2-------|
 D|-----------5--4----------------0-0-0-0-0-0-------|
            

comments powered by Disqus
↑ Back to top | Big Wreck Tabs for Knee Deep. Lyrics for acoustic guitar and electric guitar. Tablatures and chords are parodies/interpretations of the original songs. You may use it for private study, scholarship, research or language learning purposes only