» » »

Prequel To The Sequel Tabs (ver.2)

Artists:  A B C D E F G H I J K L M N O P Q R S T U V W X Y Z # 

Prequel To The Sequel Tabs (ver.2)

Between The Buried And Me
Rating:
0/5 (0 votes)

Hard to play? Try these video lessons and learn fast.
                (Intro)
Yo, this is my first time tabbing, ever. Crank it up! BTBAM RULES.

Nick

Db|-----------------------------------------------------11h12p11--------------|
Ab|----------------------------------------9h10p9----12---------12------------|
E |------------------------------------11-------11----------------11--9s8s9h11|
B |-2----------------------9--------9-----------------------------------------|
Gb|-2-----------6h7p6------------7--------------------------------------------|
Db|-0---0--4h7---------7------------------------------------------------------|

Db|---------------------------------------------------9h10p9------------------|
Ab|-------------------------------------7h8p7-----10----------10--------------|
E |-7-----------6h7p6------9------7--9---------9-----------------9-7-6-7-9----|
B |-7---------7-------7--------7----------------------------------------------|
Gb|-5---0--5------------------------------------------------------------------|
Db|---------------------------------------------------------------------------|
            
Hard to play? Try these video lessons and learn fast. | Correct




comments powered by Disqus
↑ Back to top | Tablatures and chords are parodies/interpretations of the original songs. You may use it for private study, scholarship, research or language learning purposes only