» » »

Between The Buried And Me, Prequel To The Sequel Tabs (ver.1)

Artists:  A B C D E F G H I J K L M N O P Q R S T U V W X Y Z # 

Prequel To The Sequel Tabs (ver.1)

Between The Buried And Me Tabs
 Rating:
4/5 (4 votes)
Prequel To The Sequel lessons Tabs too difficult? Try these video lessons and learn fast
                (Intro)
Okay guys, here's my last attemp at Prequel!

Tuning: Db Gb B E Ab Db

* palm mute

Tip: on the 7Gb to 9B to 11E, make it into a power cord, but strum each string seperatly

Db|-0---------------------------------------------------------------11h12p11|
Ab|-0---------------------------------------------9h10p9-------12-----------|
E |-1----------------------------------------11-----------11----------------|
B |-4----------------------------9-------9----------------------------------|
Gb|-2---------------6--7--6----------7--------------------------------------|
Db|-0---0---4---7-------------7---------------------------------------------|

Db|------------------------------------------------------------------------|
Ab|-12---------------------------------------------------------------------|
E |-----11------------11--13-----------------------------------------------|
B |----------13---14-------------------------------------------------------|
Gb|------------------------------------------------------------------------|
Db|------------------------------------------------------------------------|

Hope it sounds good to you, because it sounds good to me! Make sure your guitar is in 
my friends tried playing it and said it sucked... until i put their guitar into tune, and 
it sounded good! lol
            
Submit corrections

comments powered by Disqus
↑ Back to top | Between The Buried And Me Tabs for Prequel To The Sequel. Lyrics for acoustic guitar and electric guitar. Tablatures and chords are parodies/interpretations of the original songs. You may use it for private study, scholarship, research or language learning purposes only