» » »

Between The Buried And Me, Arsonist Tabs (ver.1)

Artists:  A B C D E F G H I J K L M N O P Q R S T U V W X Y Z # 

Arsonist Tabs (ver.1)

Between The Buried And Me Tabs
 Rating:
4/5 (4 votes)
Arsonist lessons Tabs too difficult? Try these video lessons and learn fast
                Band - Between The Buried and Me
Song - Arsonist
Tuning - Drop D


Intro/Verse:
Part 1
e|-------------------------------|
B|-3p2p0-------------------------|
G|-------3p2p0-------------------|
D|-------------3p2p0-------------|
A|--------------------3p2p0------|
E|-------------------------------|

Part 2
e|----------------------------------------------|
B|----------------------------------------------|
G|----------------------------------------------|
D|----------------------------------------------|
A|-444000444666777666444666777999444999777666---|
E|----------------------------------------------|

Part 3
e|--------------------------------------------------------------|
B|--------------------------------3p2p0-------------------------|
G|--------------------------------------3p2p0-------------------|
D|---------------------------------------------3p2p0------------|
A|-444000444666777666444-6-7-9------------3p2p0-----------------|
E|--------------------------------------------------------------|

Part 4
e|-----------------------------------------------------------------------------------|
B|-----------------------------------------------------3p2p0-------------------------|
G|-----------------------------------------8-9-11---------3p2p0----------------------|
D|------------------------------------------------------------------3p2p0------------|
A|-444000444666777666444-6-7-9---------------------------------3p2p0-----------------|
E|-----------------------------------------------------------------------------------|

Order:
Part 1
Part 2
Part 3
Part 2
Part 4

Solo (3:30-ish):
Part 1
e|----------------------------------------------------------------------------------|
B|----------------------------------------------------------------------------------|
G|----------------------------------------6h7p6----------------9-7-6-7-6------------|
D|----6-7-6---------6-7-6---6------------------9-7-6-7--6-7-------------9-7-6-------|
A|-4--------7---4-6-------7---7-6---4-6---------------------------------------------|
E|----------------------------------------------------------------------------------|

Part 2
e|--------------------------------------------------------------------------------------|
B|--------------------------------------------------------------------------------------|
G|----------------------------------------------------3-5-------------------------------|
D|---5-6-5----------5-6-5---5---------------3-4-6------0--------------------------------|
A|-3-------6-----3-5-------6---6-5----3-4-6------------0--------------------------------|
E|----------------------------------------------------------0---------------------------|
PM--------------------------------------------------------------------------------------|

Part 3
e|-----------------------------------------------------------------------------------|
B|-----------------------------------------------------------------------------------|
G|--------------------------------------------------3-5---7-6h7p6--------------------|
D|---5-6-5---------5-6-5---5--------------3-4-6-----------------9-7-6-7--------------|
A|-3-------6---3-5--------6---6-5---3-4-6--------------------------------------------|
E|-----------------------------------------------------------------------------------|
PM-----------------------------------------------------------------------------------|

Order:
Part 1 x 3
Part 2 x 1
Part 3 x 1
Part 1 x 2

This is a pretty descent band, worth checking out.
            
Submit corrections

comments powered by Disqus
↑ Back to top | Between The Buried And Me Tabs for Arsonist. Lyrics for acoustic guitar and electric guitar. Tablatures and chords are parodies/interpretations of the original songs. You may use it for private study, scholarship, research or language learning purposes only