>
 >
Arsonist

Arsonist Bass Tabs

Between The Buried And Me - Arsonist chords, tabs, tablatures, lyrics

Guitar lessons | Add/correct | Request | Top 50 tabs Artists:  A B C D E F G H I J K L M N O P Q R S T U V W X Y Z 0-9

Arsonist Bass Tabs – Between The Buried And Me

CD, Sheet music, Poster

Do you like Arsonist? Share with your friends now
Bass TabsTabs
Between The Buried And Me
Tuning: EBGbDb


0:03
E |----------------------44-----------------------------------|
B |------55444477----4455----77----------55444477----4455-----|
Gb|7777----------6677------------557777----------6677----6-7--|
Db|----77------------------88--77------77---------------------|

E |-----------------------44---------------------------------|
B |-------55444477----4455----77----------55444477----4-5----|
Gb|57777----------6677------------557777----------6677----6--|
Db|-----77------------------88--77------77-------------------|


0:22
E|-------------------------------------------------------------------------|
B|----------------5---5---4---4--------------------------------------------|
Gb|7-----6-----6-----------------7---7-----------6---6---6---6---------6---|
Db|--------------------------------------8---8--------------------0--------|


0:35
E |----------------------44-----------------------------------|
B |------55444477----4455----77----------55444477----4455-----|
Gb|7777----------6677------------557777----------6677----6-7--|
Db|----77------------------88--77------77---------------------|

E |-----------------------44-------------------------------------------|
B |-------55444477----4455----77----------55444477----4-5--------------|
Gb|57777----------6677------------557777----------6677----6-7----------|
Db|-----77------------------88--77------77----------------------7-0-0--|


1:03
E |----------------------------------------------|
B |----------------------------------------------|
Gb|----------------------------------------------|
Db|2-0-5-0-2-0-4-0-2-0-5-0-2p1p02p1p02p1p02p1p0--|x5


1:30
E |------------------------|
B |------------------------|
Gb|---------------------1--|
Db|2-0----444-3-2-0-1-0----|

E |-------------------------|
B |-------------------------|
Gb|----------------------1--|
Db|2-0-1-3-1-0-3-2-0-1-0----|x2

E |----------------------------|
B |----------------------------|
Gb|-------------------------3--|
Db|2-0-1-3-1-0-3-2-0-1-0233----|

E |-------------------------|
B |-------------------------|
Gb|----------------------1--|
Db|2-0-1-3-1-0-3-2-0-1-0----|x3

E |------------------------------------------------------------------|
B |------------------------------------------------------------------|
Gb|-------------------------3p2---------------3~-----------------3~--|
Db|2-0-1-3-1-0-3-2-0-1-02333----0~------1~---------0~------1~--------|


2:08
E |--------------------------------------------------------|
B |--------------------------------------------------------|
Gb|7-9-10-7-9-10-6-7-9-6-7-9-------------------------------|
Db|-0-0--0-0-0--0-0-0-0-0-0-8-10-11-8-10-11-7-9-10-7-9-10--|x2

E |---------------|
B |---------------|
Gb|-----------9---|
Db|7-8-10-00-0-0--|


2:31
E |-------------------------------------------------------------------------
B |-------------------------------------------------------------------------
Gb|-------------------------------------------------------------------------
Db|0-0--0-1-000--00-01-0-0--0-1-000--00-01-0-0--0-1-000--00-01-0-0--0-1-000-

E |------------|
B |------------|
Gb|-----6-5----|
Db|03-2-----7--|


2:47
E |--------------------------------------------------|
B |--------------------------------------------------|
Gb|335566335566223355223355335566335566223355223355--|
Db|--------------------------------------------------|

E |----------------------------------------------------------------|
B |----------------------------------------------------------------|
Gb|----1-----------1-------3-5-6-----------1-2-3-5-----------------|
Db|2-1---1-2-4-2-1---1-2-4-------1-2-4-2-1-------------------------|


3:04
E |-------------------------------------------------|
B |-------------------------------------------------|
Gb|3-5-6-3-5-6-2-3-5-2-3-5-3-5-6-3-5-6-2-3-5-2-3-5--|
Db|-------------------------------------------------|

E |----------------------------------------------------------------|
B |----------------------------------------------------------------|
Gb|----1-----------1-------3-5-6-----------1-2-3-5-----------------|
Db|2-1---1-2-4-2-1---1-2-4-------1-2-4-2-1-------------------------|

E |-----------------------------------------------------------|
B |-----------------------------------------------------------|
Gb|-----------------------------------3~------------------3~--|
Db|0-0---0-0---0-0---11-0~------1~----------0~------1~--------|

E |------------------------------------------------------------------------|
B |------------------------------------------------------------------------|
Gb|------------3~----------------3~------------5~----------------5~--------|
Db|0~-----1~--------0~------1~---------4~-----------1--4~--------------1~--|

E |--------------------------------------------|
B |--------------------------------------------|
Gb|--------------3~------------------3~--------|
Db|0~------1~----------0~------1~----------0~--|


4:11
E |-----------------------------------------------------------------------|
B |-----------------------------------------------------------------------|
Gb|-----------------------------------------------------------------------|
Db|332-0-2-0--0-0-0--0-0-0--0-0-0--332-0-2--3-2-1-0--0-0-0--0-0-0--0-0-0--| x2

E |-----------------------------------------------------------------|
B |-----------------------------------------------------------------|
Gb|-----------------------------------------------------------------|
Db|332-0-2-0--0-0-0--0-0-0--0-0-0--332-0-2--3-2-1-0--0-0-0--0-0-0~--|



enjoy! <333





Comments


Popular Between The Buried And Me tabs & chords
Decade Of Statues 2 Bass Tabs
Foam Born The Backtrack Bass Tabs
Medicine Wheel Bass Tabs
Prequel To The Sequel Bass Tabs
Desert Of Song 1 Chords
Destructo Spin Tabs
Laser Speed 2 Tabs
Naked By The Computer Intro Tabs
Selkies The Endless Obsession 4 Tabs
Shevanel Take 2 Ukulele


Song lyrics



↑ Back to top | Tablatures and chords are parodies/interpretations of the original songs. You may use it for private study, scholarship, research or language learning purposes only
© 2014 AZChords.com Contact us | Privacy policy | DMCA | Add/correct tabs | Request tabs | Top 50 tabs