» » »

Ants Of The Sky Tabs (ver.3)

Artists:  A B C D E F G H I J K L M N O P Q R S T U V W X Y Z # 

Ants Of The Sky Tabs (ver.3)

Between The Buried And Me
Rating:
1/5 (4 votes)

Hard to play? Try these video lessons and learn fast.
                (Intro)
-------------------------------------------------------------------------------
                             ANTS OF THE SKY by Between the Buried and Me
-------------------------------------------------------------------------------

Tuning: Dropped-D

I really hate tuning my guitar into Dropped-C,
so I did it like this:



e|-9-4-----------------------------------------------------------------------|
B|-----5---8----------8-11-14-11--------------14-17-13-----------------------|
G|-------6---6------9------------12--------15----------14--------------------|
D|-------------8-11-----------------14--17----------------16-----------------|
A|---------------------------------------------------------------------------|
D|---------------------------------------------------------------------------|

e|-------------12-16-12----------12-16-12-11----------------------11-12-14-11|
B|----------14----------14----14-------------12----------10-12-14------------|
G|-------13----------------13--------------------9-11-13---------------------|
D|----14---------------------------------------------------------------------|
A|-16------------------------------------------------------------------------|
D|---------------------------------------------------------------------------|

e|----11-14--17p16p12--------------------------------------------------------|
B|-12------------------------------------------------------------------------|
G|---------------------------------------------------------------------------|
D|---------------------------------------------------------------------------|
A|---------------------------------------------------------------------------|
D|---------------------------------------------------------------------------|



| /  slide up
| \  slide down
| h  hammer-on
| p  pull-off
| ~  vibrato
| +  harmonic
| x  Mute note
===============================================================================
            
Hard to play? Try these video lessons and learn fast. | Correct




comments powered by Disqus
↑ Back to top | Tablatures and chords are parodies/interpretations of the original songs. You may use it for private study, scholarship, research or language learning purposes only