>
 >
Ants Of The Sky

Ants Of The Sky Guitar Tabs

Between The Buried And Me - Ants Of The Sky chords, tabs, tablatures, lyrics

Guitar lessons | Add/correct | Request | Top 50 tabs Artists:  A B C D E F G H I J K L M N O P Q R S T U V W X Y Z 0-9

Ants Of The Sky Guitar Tabs – Between The Buried And Me

CD, Sheet music, Poster

Do you like Ants Of The Sky? Share with your friends now
TabsTabs v2Tabs v3Tabs v4
Hay there, i have not got guitar pro or power tab so I havnt seen a proper tab 
for this so im going to try it.
I havnt read your precious colours tab book. 
I tried to make rythem lines in time with lead lines
but it was hard :-(


C# tuning.

0:01-0:05
Lead
|-12-----------------------------------------------------------------------|
|---12-8---11-8-----------11-14-17-14-----------17-20-17------17-20-16-----|
|--------9------9-------12------------15------18--------18--18--------17---|
|-----------------11-14-----------------17--20------------20------------19-|
|--------------------------------------------------------------------------|
|--------------------------------------------------------------------------|

Rhythem
|--------------------------------------------------------------------------|
|--------------------------------------------------------------------------|
|--------------------------------------------------------------------------|
|----------------------------------------------------------------------7---|
|-2--------1-------------1----------1--------1---------1-----1---------6---|
|-0--------0-------------0----------0--------0---------0-----0---------5---|

Lead
|----------15-19-15------15-19-15-14---------------------14-15-17-14----|
|--------17--------17--17-----------15----------13-15-17------------15--|
|-----16-------------16----------------12-14-16-------------------------|
|---17------------------------------------------------------------------|
|-19--------------------------------------------------------------------|
|-----------------------------------------------------------------------|

Rythem
|-----------------------------------------------------------------------|
|-----------------------------------------------------------------------|
|-----------------------------------------------------------------------|
|-9---------------------9-----------7----7---12---------12----12----7---|
|-7---------------------7-----------5----9---10---------10-----9----5---|
|-----------------------------------------------------------------------|

Lead
|-14-17-20-19-15--|
|-----------------|
|-----------------|
|-----------------|
|-----------------|
|-----------------|

Rythem
|-----------------|
|-----------------|
|-----------------|
|---------9-------|
|---------7-------|
|-----------------|

0:05-0:15
|------------------------------------------------------------------------|
|------------------------------------------------------------------------|
|------------------------------------------------------------------------|
|-9-----------------9--7--9-----------------9--7--9-----------------9----|
|-7-7-7-7-7-7-7-7-7-7--5--7-7-7-7-7-7-7-7-7-7--5--7-7-7-7-7-7-7-7-7-7----|
|------------------------------------------------------------------------|

|-------------------------------|
|-------------------------------|
|-------------------------------|
|-7---9--12---12--12--7--9------|
|-5---7--10---10---9--5--7------|
|-------------------------------|

|------------------------------------------------------------------------|
|------------------------------------------------------------------------|
|------------------------------------------------------------------------|
|-9-----------------9--7--9-----------------9--7--9-----------------9----|
|-7-7-7-7-7-7-7-7-7-7--5--7-7-7-7-7-7-7-7-7-7--5--7-7-7-7-7-7-7-7-7-7----|
|-7-7-7-7-7-7-7-7-7-7--5--7-7-7-7-7-7-7-7-7-7--5--7-7-7-7-7-7-7-7-7-7----|

|-------------------------------|
|-------------------------------|
|-------------------------------|
|-7---9--12---12--12--7--9------|
|-5---7--10---10---9--5--7------|
|-5---7--10---10--19--5--7------|

0:15-0:31
Lead
|----------8-----------------7--------------------10-----------|
|------8-----8-----------8-----8------------10-------10--------|
|----9---9-----9-------7---7-----7-------11----11-------11-----|
|-10-------------10--9-------------9--12-------------------12--|
|--------------------------------------------------------------|
|--------------------------------------------------------------|

Rythem
|--------------------------------------------------------------|
|--------------------------------------------------------------|
|----------------------------4---------------------------------|
|-5----------------------5-----5------7------------------------|
|-5--------------------5---5-----4----5------------------------|
|-3------------------3-------------3--5------------------------|

Lead
|------------------------------------------|
|-------12----------------10---------------|
|----12----12----------11------------------|
|-14-------------14p12---------------------|
|------------------------------------------|
|------------------------------------------|

Rythem
|---------------------------------------|
|---------------------------------------|
|---------------------------------------|
|-9-----9--9--9--9--9--7----------------|
|-7-----7--7--7--7--7--5----------------|
|-7-----7--7--7--7--7--5----------------|

Lead
|----------8-----------------7--------------------------8---|
|------8-----8-----------8-----8-------------10-------------|
|----9---9-----9-------7---7-----7--------11--------11------|
|-10-------------10--9-------------9---10-------------------|
|-----------------------------------------------------------|
|-----------------------------------------------------------|

Rythem
|-----------------------------------------------------------|
|-----------------------------------------------------------|
|--------------------4-----------------------------------8--|
|-5------------------5-----------------7-----------------7--|
|-3------------------5-----------------5-5-5-5-5-5-5-5-5-6--|
|-3------------------3--------------------------------------|

Lead
|------8-11-8--------------------|
|---10--------10-----------------|
|-8--------------8---------------|
|------------------10------------|
|---------------------12-9--6----|
|--------------------------------|

Rythem
|----------------------------------------------7-8-7----------------|
|--------------------------------------------8-------8--------------|
|------------------------------------------9-----------9------------|
|-9------9---7--9--12--12--12--7--9--9--9----------------9----------|
|-7------7---5--7--10--10---9--5--7--7--7------------------10-------|
|-------------------------------------------------------------12----|

|------------------------|
|------------------------|
|-------------------14---|
|-------------13-16------|
|-------12-15------------|
|-11-14------------------|

0:31-0:36
Lead
|------------------------------------------------------------------------------|
|------------------------------------------------------------------------------|
|----------------------------------------------16-16-------------------14-14---|
|-12-12-13-14-14-------------------17-17-14-14-------17-17-16-16-13-13---------|
|----------------12-12-13-13-14-14---------------------------------------------|
|------------------------------------------------------------------------------|

Rythem
|-----------------------------------------------------------------------------|
|-----------------------------------------------------------------------------|
|-----------------------------------------------------------------------------|
|------------------------------------------------9-----9-----9-----9-----9----|
|-----------------------------------------------------------------------------|
|-7-----7-----7-----7-----7-----7-----7-----7---------------------------------|

Lead
|--------------------------------------|
|--------------------------------------|
|-------16-16-----------17----------20-|
|-13-13-------14-14--------17-16-16----|
|--------------------------------------|
|--------------------------------------|

Rythem
|--------------------------------------|
|--------------------------------------|
|--------------------------------------|
|-9-----9-----9------------------------|
|-----------------------9-----9-----6--|
|--------------------------------------|

0:37-0:39
Lead
|-17-14------------------------------------------|
|-------16----16---------------------------------|
|----------14----14------------------------------|
|-------------------16----------------------16---|
|----------------------18-15----------15-18------|
|----------------------------17-14-17------------|

Rythem
|----------------------------------------------|
|------------------------------10-10-----------|
|-8--8--------------------8--8-------11-11--8--|
|--------------7--7-10-10----------------------|
|--------9--9----------------------------------|
|----------------------------------------------|

0:39-1:08
Lead
|----------------------------------------------------|
|----------------19----20-15-------------------------|
|-------16-21-16----16-------16-14----14-16-17-------|
|----17----------------------------17----------16----|
|-19-------------------------------------------------|
|----------------------------------------------------|

Rythem
|----------------------------------------------------|
|----------------------------------------------------|
|-------------9----------------11-12-11--------------|
|-------9-----------9-----------------------12-------|
|-7----------------------10--------------------------|
|----------------------------------------------------|

Lead
|----------------------------------------------------|
|----------------19----20-15-------------------------|
|-------16-21-16----16-------16----------------------|
|----17--------------------------16-17-16-19-16------|
|-19--------------------------------------------17---|
|----------------------------------------------------|

Rythem
|--------------------------------------------|
|--------------------------------------------|
|-------------9------------------7--9--7-----|
|-------9-----------9----------------------7-|
|-7----------------------10------------------|
|--------------------------------------------|

Lead
|----------------------------------------------------|
|----------------19----20-15-------------------------|
|-------16-21-16----16-------16-14----14-16-17-------|
|----17----------------------------17----------16----|
|-19-------------------------------------------------|
|----------------------------------------------------|

Rythem
|----------------------------------------------------|
|----------------------------------------------------|
|-------------9----------------11-12-11--------------|
|-------9-----------9-----------------------12-------|
|-7----------------------10--------------------------|
|----------------------------------------------------|

Lead
|--------------------------------------------------|
|----------------------------------17-19-20-19-15--|
|-19-17-16----------------16-17-19-----------------|
|----------19-17-16-17-19--------------------------|
|--------------------------------------------------|
|--------------------------------------------------|

Rythem
|--------------------------------------------------|
|----------------------------------13-15-17-15-----|
|-16-14-12----------------12-14-16-------------13--|
|----------16-14-12-14-16--------------------------|
|--------------------------------------------------|
|--------------------------------------------------|

Lead
|----------------------------------------------------|
|----------------19----20-15-------------------------|
|-------16-21-16----16-------16-14----14-16-17-------|
|----17----------------------------17----------16----|
|-19-------------------------------------------------|
|----------------------------------------------------|

Rythem
|----------------------------------------------------|
|----------------------------------------------------|
|-------------9----------------11-12-11--------------|
|-------9-----------9-----------------------12-------|
|-7----------------------10--------------------------|
|----------------------------------------------------|

Lead
|----------------------------------------------------|
|----------------19----20-15-------------------------|
|-------16-21-16----16-------16----------------------|
|----17--------------------------16-17-16-19-16------|
|-19--------------------------------------------17---|
|----------------------------------------------------|

Rythem
|--------------------------------------------|
|--------------------------------------------|
|-------------9------------------7--9--7-----|
|-------9-----------9----------------------7-|
|-7----------------------10------------------|
|--------------------------------------------|

Lead
|----------------------------------------------------|
|----------------19----20-15-------------------------|
|-------16-21-16----16-------16-14----14-16-17-------|
|----17----------------------------17----------16----|
|-19-------------------------------------------------|
|----------------------------------------------------|

Rythem
|----------------------------------------------------|
|----------------------------------------------------|
|-------------9----------------11-12-11--------------|
|-------9-----------9-----------------------12-------|
|-7----------------------10--------------------------|
|----------------------------------------------------|

Lead
|--------------------------------------------------|
|----------------------------------17-19-20-19-15--|
|-19-17-16----------------16-17-19-----------------|
|----------19-17-16-17-19--------------------------|
|--------------------------------------------------|
|--------------------------------------------------|

Rythem
|--------------------------------------------------|
|----------------------------------13-15-17-15-----|
|-16-14-12----------------12-14-16-------------13--|
|----------16-14-12-14-16--------------------------|
|--------------------------------------------------|
|--------------------------------------------------|

Lead
|----------------------------------------------------|
|----------------19----20-15-------------------------|
|-------16-21-16----16-------16-14----14-16-17-------|
|----17----------------------------17----------16----|
|-19-------------------------------------------------|
|----------------------------------------------------|

Rythem
|----------------------------------------------------|
|----------------------------------------------------|
|-------------9----------------11-12-11--------------|
|-------9-----------9-----------------------12-------|
|-7----------------------10--------------------------|
|----------------------------------------------------|

Lead
|----------------------------------------------------|
|----------------19----20-15-------------------------|
|-------16-21-16----16-------16----------------------|
|----17--------------------------16-17-16-19-16------|
|-19--------------------------------------------17---|
|----------------------------------------------------|

Rythem
|--------------------------------------------|
|--------------------------------------------|
|-------------9------------------7--9--7-----|
|-------9-----------9----------------------7-|
|-7----------------------10------------------|
|--------------------------------------------|

Lead
|----------------------------------------------------|
|----------------19----20-15-------------------------|
|-------16-21-16----16-------16-14----14-16-17-------|
|----17----------------------------17----------16----|
|-19-------------------------------------------------|
|----------------------------------------------------|

Rythem
|----------------------------------------------------|
|----------------------------------------------------|
|-------------9----------------11-12-11--------------|
|-------9-----------9-----------------------12-------|
|-7----------------------10--------------------------|
|----------------------------------------------------|

Lead
|--------------------------------------------------|
|----------------------------------17-19-20-19-15--|
|-19-17-16----------------16-17-19-----------------|
|----------19-17-16-17-19--------------------------|
|--------------------------------------------------|
|--------------------------------------------------|

Rythem
|--------------------------------------------------|
|----------------------------------13-15-17-15-----|
|-16-14-12----------------12-14-16-------------13--|
|----------16-14-12-14-16--------------------------|
|--------------------------------------------------|
|--------------------------------------------------|

Lead
|----------------------------------------------------|
|----------------19----20-15-------------------------|
|-------16-21-16----16-------16-14----14-16-17-------|
|----17----------------------------17----------16----|
|-19-------------------------------------------------|
|----------------------------------------------------|

Rythem
|----------------------------------------------------|
|----------------------------------------------------|
|-------------9----------------11-12-11--------------|
|-------9-----------9-----------------------12-------|
|-7----------------------10--------------------------|
|----------------------------------------------------|

Lead
|----------------------------------------------------|
|----------------19----20-15-------------------------|
|-------16-21-16----16-------16----------------------|
|----17--------------------------16-17-16-19-16------|
|-19--------------------------------------------17---|
|----------------------------------------------------|

Rythem
|--------------------------------------------|
|--------------------------------------------|
|-------------9------------------7--9--7-----|
|-------9-----------9----------------------7-|
|-7----------------------10------------------|
|--------------------------------------------|

Lead
|----------------------------------------------------|
|----------------19----20-15-------------------------|
|-------16-21-16----16-------16-14----14-16-17-------|
|----17----------------------------17----------16----|
|-19-------------------------------------------------|
|----------------------------------------------------|

Rythem
|----------------------------------------------------|
|----------------------------------------------------|
|-------------9----------------11-12-11--------------|
|-------9-----------9-----------------------12-------|
|-7----------------------10--------------------------|
|----------------------------------------------------|

Lead
|--------------------------------------------------|
|----------------------------------17-19-20-19-15--|
|-19-17-16----------------16-17-19-----------------|
|----------19-17-16-17-19--------------------------|
|--------------------------------------------------|
|--------------------------------------------------|

Rythem
|--------------------------------------------------|
|----------------------------------13-15-17-15-----|
|-16-14-12----------------12-14-16-------------13--|
|----------16-14-12-14-16--------------------------|
|--------------------------------------------------|
|--------------------------------------------------|

Everytime i listen to this part of the song i hear it different.
I know its keyboard but sometimes i feel a guitar underlay. 
I think its this

1:08-1:23
|-------------------------------------------------------------|
|--8------------8------------10------------12------------10---|
|--9------------7------------11------------12------------11---|
|-10------------9------------12------------14------------12---|
|-------------------------------------------------------------|
|-------------------------------------------------------------|

|-------------------------------------------------------------|
|--8------------8------------10-------------------------------|
|--9------------7------------11--------------------11-12-14---|
|-10------------9------------12-------------------------------|
|-------------------------------------------------------------|
|-------------------------------------------------------------|

1:23-1:45
Lead
|-------------------------------------------------------------------------|
|-------------------------15--13--12-----------------------------12-10----|
|-16--12--14--16--12--14--------------14--12--11--12-11-12-11----------11-|
|-------------------------------------------------------------12----------|
|-------------------------------------------------------------------------|
|-------------------------------------------------------------------------|

Rythem
|-------------------------------------------------------------------------|
|-------------------------------------------------------------------------|
|-------------------------------------------------------------------------|
|-5---5---5---5---5---5---7---7---7---7---7---7----9---9-------9--9--9--9-|
|-5---5---5---5---5---5---5---5---5---5---5---5----7---7-------7--7--7--7-|
|-3---3---3---3---3---3---5---5---5---5---5---5----7---7-------7--7--7--7-|

Lead
|----------------------------------------------------------------|
|-----10-12-------10------------------------------------12-15----|
|--12-------11--------12--11--------------11------11-12----------|
|--------------12-------------14--12--14-----9-12----------------|
|----------------------------------------------------------------|
|----------------------------------------------------------------|

Rythem
|----------------------------------------------------------------|
|----------------------------------------------------------------|
|----------------------------------------------------------------|
|--5--5--5--5--5--5---9--9--9--9--9--9---4---4---4---4---4---4---|
|--5--5--5--5--5--5---7--7--7--7--7--7---2---2---2---2---2---2---|
|--3--3--3--3--3--3---7--7--7--7--7--7---2---2---2---2---2---2---|

Lead
|-----12-15-15-12-----14-17-14-----------------------|
|--13-------------13-----------15--------------------|
|---------------------------------14----------14-----|
|------------------------------------16----16--------|
|---------------------------------------17-----------|
|----------------------------------------------------|

Rythem
|----------------------------------------------------|
|----------------------------------------------------|
|----------------------------------------------------|
|--5--5--5--5--5--5---7---7---7--7--7--7-------------|
|--3--3--3--3--3--3---5---5---5--5--5--5-------------|
|--3--3--3--3--3--3---5---5---5--5--5--5-------------|


Lead
|-------------------------------------------------------------------------|
|-------------------------15--13--12-----------------------------12-10----|
|-16--12--14--16--12--14--------------14--12--11--12-11-12-11----------11-|
|-------------------------------------------------------------12----------|
|-------------------------------------------------------------------------|
|-------------------------------------------------------------------------|

Rythem
|-------------------------------------------------------------------------|
|-------------------------------------------------------------------------|
|-------------------------------------------------------------------------|
|-5---5---5---5---5---5---7---7---7---7---7---7----9---9-------9--9--9--9-|
|-5---5---5---5---5---5---5---5---5---5---5---5----7---7-------7--7--7--7-|
|-3---3---3---3---3---3---5---5---5---5---5---5----7---7-------7--7--7--7-|

Lead
|----------------------------------------------------------------|
|-----10-12-------10------------------------------------12-15----|
|--12-------11--------12--11--------------11------11-12----------|
|--------------12-------------14--12--14-----9-12----------------|
|----------------------------------------------------------------|
|----------------------------------------------------------------|

Rythem
|----------------------------------------------------------------|
|----------------------------------------------------------------|
|----------------------------------------------------------------|
|--5--5--5--5--5--5---9--9--9--9--9--9---4---4---4---4---4---4---|
|--5--5--5--5--5--5---7--7--7--7--7--7---2---2---2---2---2---2---|
|--3--3--3--3--3--3---7--7--7--7--7--7---2---2---2---2---2---2---|

Lead
|-----12-15-15-12-----14-17-14-----------------------|
|--13-------------13-----------15--------------------|
|---------------------------------14----------14-----|
|------------------------------------16----16--------|
|---------------------------------------17-----------|
|----------------------------------------------------|

Rythem
|----------------------------------------------------|
|----------------------------------------------------|
|----------------------------------------------------|
|--5--5--5--5--5--5---7---7---7--7--7--7-------------|
|--3--3--3--3--3--3---5---5---5--5--5--5-------------|
|--3--3--3--3--3--3---5---5---5--5--5--5-------------|

OK I hope thats ok. Ill do about 2 minutes every few days 
That should be spot on!!
Thanks guys and Girls





Comments


Popular Between The Buried And Me tabs & chords
Camilla Rhodes Bass Tabs
Day I Tried To Live Bass Tabs
Alaska Tabs
Alaska Intro 2 Tabs
Coulrophobia Tabs
Informal Gluttony Tabs
Medicine Wheel Tabs
Mirrors Tabs
Mordecai 2 Tabs
Selkies The Endless Obsession 2 Tabs


Song lyrics



↑ Back to top | Tablatures and chords are parodies/interpretations of the original songs. You may use it for private study, scholarship, research or language learning purposes only
© 2014 AZChords.com Contact us | Privacy policy | DMCA | Add/correct tabs | Request tabs | Top 50 tabs