» » »

Johnny B Good Tabs (ver.3)

Artists:  A B C D E F G H I J K L M N O P Q R S T U V W X Y Z # 

Johnny B Good Tabs (ver.3)

Berry Chuck
Rating:
0/5 (0 votes)

Tabs too difficult? Try these video lessons and learn fast.
                (Intro)

Hey! I've got for you a full intro for Johnny B Good. Tab is perfect. 
And this song is very hard. 

e---------6/7-7-7--6/7-7-7-------------------------------------------
B----7-9--6/7-7-7--6/7-7-7--10-9-7-7-------------------7---7-9-7-----
G-/8-------------------------------7p8---8-8-8--8-8-8--7p8-----7p8-8-
D-------------------------------------9--9-9-9--9-9-9--------------9-
A--------------------------------------------------------------------
E--------------------------------------------------------------------

e-----------------------------------------------------
B---7----7----7----7------7----7----7----7----7------7
G-9b---9b---9b---9b---9b~~---9b---9b---9b---9b---9b~~-
D-----------------------------------------------------
A-----------------------------------------------------
E-----------------------------------------------------

e---7-------10-9-7------------7----7---7------
B----10-9-7--------10-9-7----7-----7---7-7----
G-9b----------------------8-8------------7p8--
D-------------------------------9b---9b------9
A---------------------------------------------
E---------------------------------------------

That's it! It's very hard, because Chuck Berry is playing it very fast.
Enjoy!
            
Tabs too difficult? Try these video lessons and learn fast.




comments powered by Disqus
↑ Back to top | Tablatures and chords are parodies/interpretations of the original songs. You may use it for private study, scholarship, research or language learning purposes only