» » »

Johnny B Good Tabs (ver.2)

Artists:  A B C D E F G H I J K L M N O P Q R S T U V W X Y Z # 

Johnny B Good Tabs (ver.2)

Berry Chuck
Rating:
0/5 (0 votes)

Hard to play? Try these video lessons and learn fast.
                1)
E-----------4/5-5-5-5-5------------4/5-5-5-5------------5-----------5----------
B------5-7--4/5-5-5-5-5-------5-7--4/5-5-5-5-------5-7--5-7-5----5--5-7-5---5--
G--4/6--------------------4/6------------------4/6--------7-5h6--6----7-5h6-6--
D----------------------------------------------------------------7----------7--
A-----------------------------------------------------------------------------
E


2)
E
B---7^-!-^-!-^-!-^    This one is a stretch. ^ equals stretch up(towards high E)
G---7^-!-^-!-^-!-^                           ! equals standard position
D
A



3)
E
B------5----5--5----5---5--5----5---5--5---5----   Nother stretch.
G--8*---8*---8*-8*---8*--8*-8*---8*--8*-8*--8*--   * equals stretch down(towards D)
D
A


4)
E--8-7-5------------------------------------------------------------------
B--8-7-5-8-7-5-----------5-5-5-5-5-5-5------------------------------------
G--------8-7-5--7-5h6----7-7-7-7-7-7-7------------------------------------
D---------------7-5h7----6-6-6-6-6-6-6------------------------------------
A------------------------7-7-7-7-7-7-7------------------------------------
E


5a)
E
B
G
D------------------------------------------------------
A--7-7-9-9-7-7-9-9-7-7-9-9-7-7-9-9-----------------------------------
E--5-5-5-5-5-5-5-5-5-5-5-5-5-5-5-5-------------------------------------

5b)
E
B
G
D--7-7-9-9-7-7-9-9-7-7-9-9-7-7-9-9-----------------------------------
A--5-5-5-5-5-5-5-5-5-5-5-5-5-5-5-5-------------------------------------
E---------------------------------------------------------


5c)
E
B
G
D--9--9-11-11-9--9--11-11--9--9-11-11--9--9-11-11--  This is the same strum as the others
A--7--7--7--7--7--7--7--7--7--7--7--7--7--7--7--7--  only i had to space it out for those
E-----------------------------------------------     damn 2-digit numbers


RIFF ORDER  5A-5A-5B-5A-5C-5A


then's the chorus, which he just plays riffs 5a, 5b, and 5c, and throws in a few strums with 
the 5th fret on the B and E string. just listen to it
            
Hard to play? Try these video lessons and learn fast. | Correct




comments powered by Disqus
↑ Back to top | Tablatures and chords are parodies/interpretations of the original songs. You may use it for private study, scholarship, research or language learning purposes only