» » »

Bedlight For Blue Eyes, Ephemeral Addictions Tabs (ver.1)

Artists:  A B C D E F G H I J K L M N O P Q R S T U V W X Y Z # 

Ephemeral Addictions Tabs (ver.1)

Bedlight For Blue Eyes Tabs
 Rating:
4.6/5 (9 votes)
Ephemeral Addictions lessons Tabs too difficult? Try these video lessons and learn fast
                (Intro)
BAND: Bedlight for Blue eyes

STANDARD TUNING


PLAYED MODERATELY SLOW

Intro:
E|---------------------17-19---------------------------------------17-19-17|
B|-19-------15-17-15-14-----19-------15-14-----19------15-17-15-14---------|
G|----16-14--------------------16-14-------12-----16-14--------------------|
D|-------------------------------------------------------------------------|
A|-------------------------------------------------------------------------|
E|-------------------------------------------------------------------------|

E|-17-------14-15-14-12--17-19-17-----14-12---17------14-15-14-12-21-22-21b|
B|----15-14----------------------15-14-----12----15-14---------------------|
G|-------------------------------------------------------------------------|
D|-------------------------------------------------------------------------|
A|-------------------------------------------------------------------------|
E|-------------------------------------------------------------------------|
            
Submit corrections

comments powered by Disqus
↑ Back to top | Bedlight For Blue Eyes Tabs for Ephemeral Addictions. Lyrics for acoustic guitar and electric guitar. Tablatures and chords are parodies/interpretations of the original songs. You may use it for private study, scholarship, research or language learning purposes only