» » »

Bedlight For Blue Eyes, Ephemeral Addictions Tabs (ver.2)

Artists:  A B C D E F G H I J K L M N O P Q R S T U V W X Y Z # 

Ephemeral Addictions Tabs (ver.2)

Bedlight For Blue Eyes Tabs
 Rating:
4/5 (4 votes)
Ephemeral Addictions lessons Tabs too difficult? Try these video lessons and learn fast
1
                |----------------------------17-19------------------------------------------------------17-19-17--|
|--19-------15-17-15-14---------19---------15-14-----19----------15-17-15-14----------------------|
|-----16-14----------------------------16-14---------12-----16-14---------------------------------|
|-------------------------------------------------------------------------------------------------|
|-------------------------------------------------------------------------------------------------|
|-------------------------------------------------------------------------------------------------|

|--17-------14-15-14-12-17-19-17----------14-12-----17-------14-15-14-12-21-22-21--|b
|-----15-14----------------------------15-14----------12----15-14------------------|
|----------------------------------------------------------------------------------|
|----------------------------------------------------------------------------------|
|----------------------------------------------------------------------------------|
|----------------------------------------------------------------------------------|

|---------------------------------------------|
|---------------------------------------------|
|---------------------------------------------|
|--4-4-4-4------------------------2-2-2-2-----|
|--2-2-2-2----0-0-0-0-5-5-5-5-0-0-0-0---------|
|---------------0-0-0-0-5-5-5-5---------------|

|-------------------------------------------------------------------------------|
|-------------------------------------------------------------------------------|
|------------------------------------------------2-2-2-2-2-2--------------------|
|------------------------------------------------4-4-4-4-4-4--------------------|
|--0-0-0-0-0-0-5-5-5-5-5-5-0-0-0-0-0-0------------------5-5-5-5-5-5-------------|
|--0-0-0-0-0-0-5-5-5-5-5-5-0-0-0-0-0-0------------------5-5-5-5-5-5-------------|

|---------------------------------------------------------------------------------|
|---------------------------------------------------------------------------------|
|---------------------------------------------------------------------------------|
|---------------------------------------------------------------------------------|
|--4-4-4-5-4-0-0-2-2-5-5-5-5-----4-4-4-5-4-0-0-2-2-5-5-5-5-7-7-7-7----------------|
|--4-4-4-5-4-0-0-2-2-5-5-5-5-----4-4-4-5-4-0-0-2-2-5-5-5-5-7-7-7-7----------------|
            
Submit corrections

comments powered by Disqus
↑ Back to top | Bedlight For Blue Eyes Tabs for Ephemeral Addictions. Lyrics for acoustic guitar and electric guitar. 1 Tablatures and chords are parodies/interpretations of the original songs. You may use it for private study, scholarship, research or language learning purposes only