» » »

Beatles, From Me To You Bass tabs (ver.3)

Artists:  A B C D E F G H I J K L M N O P Q R S T U V W X Y Z # 

From Me To You Bass tabs (ver.3)

Beatles Tabs
Rating:
0/5 (0 votes)
From Me To You lessons Tabs too difficult? Try these video lessons and learn fast
                The Beatles
Written by John Lennon and Paul McCartney; released on single "From Me To 
You / Thank You Girl"

A nice one, I like its lyrics :-)

Intro:
G|------- ------- ------- -------|------- ------- ------- -------|
D|-------------------------------|-------------------------------|
A|-------------------------------|-------------------------------|
E|-------------------------------|-------------------------------|
                                                          Da  da


G|------- ------- ------- -------|------- ------- ------- -------|
D|----------------5--------------|7------------------------------|
A|-------------------------------|----------------7--------------|
E|8------------------------------|-------------------------------|
  da      da  da  da      da      da                      da  da


G|------- ------- ------- -------|------- ------- ------- -------|
D|----------------5--------------|7------------------------------|
A|-------------------------------|----------------7--------------|
E|8------------------------------|-------------------------------|
  da      da  da  da      da      da                      If  there's

Verse:
G|------- ------- ------- -------|------- ------- ------- -------|
D|----------------5--------------|7------------------------------|
A|-------------------------------|----------------7--------------|
E|8------------------------------|-------------------------------|
  a - ny- thing   that you    want,                       if  there's


G|------- ------- ------- -------|------- ------- ------- -------|
D|----------------5--------------|5------------------------------|
A|-------------------------------|----------------5--------------|
E|8------------------------------|-------------------------------|
  a - ny- thing   I   could   do,                         Just


G|------- ------- ------- -------|------- ------- ------- -------|
D|-------------------------------|7------------------------------|
A|8------------------------------|----------------7--------------|
E|----------------8--------------|-------------------------------|
  call on     me,         and I'll    it  a - long        with love,
                                 send

G|------- ------- ------- -------|------- ------- ------- -------|
D|----------------5--------------|----------------7--------------|
A|-------------------------------|-------------------------------|
E|8------------------------------|8------------------------------|
          from me         to  you                         I've got

Verse:
G|------- ------- ------- -------|------- ------- ------- -------|
D|----------------5--------------|7------------------------------|
A|-------------------------------|----------------7--------------|
E|8------------------------------|-------------------------------|
  every - thing   that you    want,                       like a


G|------- ------- ------- -------|------- ------- ------- -------|
D|----------------5--------------|5------------------------------|
A|-------------------------------|----------------5--------------|
E|8------------------------------|-------------------------------|
  heart   that's  oh, so      true,                       Just


G|------- ------- ------- -------|------- ------- ------- -------|
D|-------------------------------|7------------------------------|
A|8------------------------------|----------------7--------------|
E|----------------8--------------|-------------------------------|
  call on     me,         and I'll    it  a - long        with love,
                                 send

G|------- ------- ------- -------|------- ------- ------- -------|
D|----------------5--------------|----------------5--------------|
A|-------------------------------|-------------------------------|
E|8------------------------------|8------------------------------|
          from me         to  you                         I've got

Bridge:
G|------- ------- ------- -------|------- ------- ------- -------|
D|5---------------------------5--|----------------5--------------|
A|----------------5--------------|-------------------------------|
E|-------------------------------|8------------------------------|
  arms       that long        to  hold    you,                and


G|------- ------- ------- -------|------- ------- ------- -------|
D|-------------------------------|-------------------------------|
A|8---------------------------7--|8------------------------------|
E|----------------8--------------|----------------8--------------|
  keep    you     by      my      side,                   I've got


G|------- ------- ------- -------|------- ------- ------- -------|
D|----------------7--------------|----------------7--------------|
A|5------------------------------|5------------------------------|
E|-------------------------------|-------------------------------|
  lips       that long        to  kiss    you,            and


G|------- ------- ------- -------|------- ------- ------- -------|
D|5---5---5---5---5---5---5---5--|5---5---5---5---5---5---5------|
A|-------------------------------|-------------------------------|
E|-------------------------------|-------------------------------|
  keep    you     sa  -   tis  -  fied,           ooh!    If  there's

Verse:
G|------- ------- ------- -------|------- ------- ------- -------|
D|----------------5--------------|7-----------7-----------7------|
A|-------------------------------|----------------7--------------|
E|8-----------------------8------|-------------------------------|
  a - ny- thing   that you    want,                       if  there's


G|------- ------- ------- -------|------- ------- ------- -------|
D|----------------5--------------|5-----------5-----------5------|
A|-------------------------------|----------------5--------------|
E|8-----------8-----------8------|-------------------------------|
  a - ny- thing   I   could   do,                         Just


G|------- ------- ------- -------|------- ------- ------- -------|
D|-------------------------------|7-----------7-----------7------|
A|8-----------8-----------8------|----------------7--------------|
E|----------------8--------------|-------------------------------|
  call on     me,         and I'll    it  a - long        with love,
                                 send

G|------- ------- ------- -------|------- ------- ------- -------|
D|----------------5-----------5--|----------------7-------7------|
A|-------------------------------|-------------------------------|
E|8-----------8------------------|8-----------8------------------|
          from me         to  you

Verse (half-solo):
G|------- ------- ------- -------|------- ------- ------- -------|
D|----------------5--------------|7-----------7-----------7------|
A|-------------------------------|----------------7--------------|
E|8-----------8-----------8------|-------------------------------|
                                          From    me


G|------- ------- ------- -------|------- ------- ------- -------|
D|----------------5--------------|5-----------5-----------5------|
A|-------------------------------|----------------5--------------|
E|8-----------8-----------8------|-------------------------------|
                                          to  you,        Just


G|------- ------- ------- -------|------- ------- ------- -------|
D|-------------------------------|7-----------7-----------7------|
A|8-----------8-----------8------|----------------7--------------|
E|----------------8--------------|-------------------------------|
  call on     me,         and I'll    it  a - long        with love,
                                 send

G|------- ------- ------- -------|------- ------- ------- -------|
D|----------------5-----------5--|----------------5--------------|
A|-------------------------------|-------------------------------|
E|8-----------8------------------|8-----------8-----------8------|
          from me         to  you                         I've got

Bridge:
G|------- ------- ------- -------|------- ------- ------- -------|
D|5-----------5---------------5--|----------------5--------------|
A|----------------5--------------|-------------------------------|
E|-------------------------------|8-----------8---------------8--|
  arms       that long        to  hold    you,                and


G|------- ------- ------- -------|------- ------- ------- -------|
D|-------------------------------|-------------------------------|
A|8-----------8------------------|8-----------8-----------8------|
E|----------------8-----------8--|----------------8--------------|
  keep    you     by      my      side,                   I've got


G|------- ------- ------- -------|------- ------- ------- -------|
D|----------------7--------------|----------------7--------------|
A|5-----------5---------------4--|5-----------5---------------5--|
E|-------------------------------|-------------------------------|
  lips       that long        to  kiss    you,            and


G|------- ------- ------- -------|------- ------- ------- -------|
D|5---5---5---5---5---5---5---5--|5---5---5---5---5---5---5------|
A|-------------------------------|-------------------------------|
E|-------------------------------|-------------------------------|
  keep    you     sa  -   tis  -  fied,           ooh!    If  there's

Verse:
G|------- ------- ------- -------|------- ------- ------- -------|
D|----------------5--------------|7-----------7-----------7------|
A|-------------------------------|----------------7--------------|
E|8-----------------------8------|-------------------------------|
  a - ny- thing   that you    want,                       if  there's


G|------- ------- ------- -------|------- ------- ------- -------|
D|----------------5--------------|5-----------5-----------5------|
A|-------------------------------|----------------5--------------|
E|8-----------8-----------8------|-------------------------------|
  a - ny- thing   I   could   do,                         Just


G|------- ------- ------- -------|------- ------- ------- -------|
D|-------------------------------|7-----------7-----------7------|
A|8-----------8-----------8------|----------------7--------------|
E|----------------8--------------|-------------------------------|
  call on     me,         and I'll    it  a - long        with love,
                                 send

G|------- ------- ------- -------|------- ------- ------- -------|
D|----------------5-------5------|------------5------------------|
A|-------------------------------|-------------------------------|
E|8-----------8------------------|8-----------------------8------|
          from me         to  you,                        to  you,

Outro:
G|------- ------- ------- -------|------- ------- ------- -------|
D|7-----------------------7------|6-----------------------6------|
A|------------7------------------|------------6------------------|
E|-------------------------------|-------------------------------|
                          to  you,                        to


G|------- ------- ------- -------|------- ------- ------- -------|
D|----------------5--------------|7------------------------------|
A|-------------------------------|-------------------------------|
E|8------------------------------|-------------------------------|
  you!

Please e-mail me for any corrections, or write a comment.
            

comments powered by Disqus
↑ Back to top | Beatles Bass for From Me To You. Lyrics for acoustic guitar and electric guitar. Tablatures and chords are parodies/interpretations of the original songs. You may use it for private study, scholarship, research or language learning purposes only